Tété

La Tchave

Tété

tabs nolevel nolevel

by  BRUNBLAZKOWSKI

save to print version add songbook text version e-mail correct tuner
chordsukulelecavacokeyboardtabbassdrumsharmonicaflute Guitar Pro
close

there isn't a video lesson for this song

chords

La Tchave

	  		capo case 2  
intro  
---------------------1-------------------------  
-----1-0-----0-----1-1-----1-----1-----0----1--  
-----0-1-----1-----2-2-----2-----0-----0---0---  
---2---2---2-----2---3---3-----2-----0----2----  
-3-----2-2-----0-----3-3-----3-----------3-----  
---------------------1--------------3-----------  

---------------------------1-1-1-  
---1---1-1---------1-1-----1-1-1-  
---0---0-0---------2-2-1-1-2-2-2-  
---2---2-2---------2-2-2-2-3-3-3-  
---3---3-3-3-2-3/2-0-0-2-2-3-3-3-  
-----3-----------------0-0-1-1-1-  

refrains et couplet  
-------------------------  
-1---1-1-1----1---1-1-1---  
-0---0-0-0----2-1-2-2-2---  
-2---2-2-2----2-2-3-3-3---  
-3---3-3-3------2-3-3-3---  
---3--------3---0-1-1-1-3-  

Dans l'temps j'avais une femme, 
Une bentley et un chien 
Helas a mon grand dam 
L'infortune, le destin 
Un jour de fée vrillée  
S'en sont mélés maillet 
Et voila sur l'engin 
Ma bonne femme et mon chien 
Refrain :La tchave ! Me laisse et vas  t en 
Nous n'avons plus rien a nous dire 
La tchave ! Me laisse et n'attends rien de moi 
Tu peux bien mourir 
La tchave 
Ainsi la mort dans l ame 
Las , chez quelques copains 
Je suis allé madame 
Chercher un peu d'entrain 
De joie, de reconfort mais 
Arrivé sur les lieux 
On ne m oppose alors 
Que ce refrain odieux 
Refrain 
Tout petit deja a l'ecole 
Je n'avais pas d'amis, pas de bol 
Dégage toi t'as pas de copain 
C'était ma pitance, mon quatidien 
Alors... 
Arrivé sur le seuil 
J'avise sur le champ 
De m'oter la vie, vu 
Vu d'abreger mes tourments mais 
Arrivé sur le seuil 
Je n'trouve en guise d'accueil 
Qu'une maniere d'écriteau 
Portant ces quelques 
		  

See also:

tabs Tété - Le Meilleur Des Mondes tabs Tété - La Relance tabs Tété - Le Sacre Des Lemmings (interlude) tabs Soko - Sweet Sound Of Ignorance tabs Lara Fabian - Love By Grace tabs Tété - Le Magicien
e-chords

Other versions:

tabs Tété - La Tchave
auto scroll beats size up size down change color hide chords drawings
tab show chords e-chords YouTube Clip e-chords hide all tabs e-chords go to top tab

share with facebook