Tété

La Croisée Desn Chemins

Tété

tabs nolevel nolevel

by  BRUNBLAZKOWSKI

save to print version add songbook text version e-mail correct tuner
chordsukulelecavacokeyboardtabbassdrumsharmonicaflute Guitar Pro
close

there isn't a video lesson for this song

chords

La Croisée Desn Chemins

	  		La croisées des chemins - Live (Paris - la maroquinerie) 


intro : 

    A    G     F#m   E   F#m E	                          	        	 
|-----------------------------------------------------------------| 
|-----------------------------------------------------------------| 
|----6-----4-----2-----1--2-1-------------------------------------| 
|-------------------------4-2-------------------------------------| 
|-7-----5-----4-----2-----4-2-------------------------------------| 
|-----------------------------------------------------------------| 

    A    G     F#m   E   F#m E	                          	        	 
|-----------------------------------------------------------------| 
|-----------------------------------------------------------------| 
|----6-----4-----2-----1---2-(2)----------------------------------| 
|--------------------------4-(4)----------------------------------| 
|-7-----5-----4-----2------4-(4)----------------------------------| 
|-----------------------------------------------------------------| 

    A    G     F#m   E   F#m E	                          	        	 
|---------------------------------------0-------------------------| 
|---------------------------------------0-------------------------| 
|----6-----4-----2-----1--2-1--2-1--2---X-------------------------| 
|-------------------------4-2--4-2--4---X-------------------------| 
|-7-----5-----4-----2-----4-2--4-2--4---X-------------------------| 
|---------------------------------------0-------------------------| 




1er Rift : 
        E       F#m 	                          	 
		  

Full key step upFull key step up
Half key step upHalf key step up
Half key step downHalf key step down
Full key step downFull key step down
hide glossary

See also:

tabs Tété - Le Meilleur Des Mondes tabs Tété - La Relance tabs Tété - Le Sacre Des Lemmings (interlude) tabs Soko - Sweet Sound Of Ignorance tabs Lara Fabian - Love By Grace tabs Tété - Le Magicien
e-chords

Other versions:

tabs Tété - La Croisée Desn Chemins
auto scroll beats size up size down change color hide chords drawings
tab show chords e-chords YouTube Clip e-chords hide all tabs e-chords go to top tab

share with facebook