Temas de Filmes

The Last Of Mohicans Tab

Temas de Filmes

Difficulty: nolevelnolevel

by alyslima

tuner correct add songbook print version text version save to e-mail
chordsukulelecavacokeyboardtabbassdrumsharmonicsflute Guitar Pro
close

there isn't a video lesson for this song

chords

The Last Of Mohicans

  		Dm                                         C 
E|---1--0------------------------------------1-0-3-- 
B|---3---3---------------------------------3---2---- 
G|---2----2----------------------------------------- 
D|---0---------------------------------------------- 
A|---------------------------------------------3---- 
E|-------------------------------------------------- 

    F      C      Dm 
E|---5----0-3-0--1- 
B|-6--8-6-1---1--3- 
G|------------0--2- 
D|---------------0- 
A|--------3---3--0- 
E|-8-------------- 
	  

Full key step upFull key step up
Half key step upHalf key step up
Half key step downHalf key step down
Full key step downFull key step down
auto scroll beats size up size down change color hide chords drawings
tab show chords e-chords YouTube Clip e-chords hide all tabs e-chords go to top tab

share with facebook

Search Paypal