Temas de Filmes

home > Temas de Filmes

Batman (ver.3) Tab

Temas de Filmes

Difficulty: BeginnerBeginner

by galeto

tuner correct add songbook print version text version save to e-mail
chordsukulelecavacokeyboardtabbassdrumsharmonicsflute Guitar Pro
chords

Batman (ver.3)

	   
1ª-parte:          (Rápida) 
 
E|---------------------------------------| 
B|---------------------------------------| 
G|-5-5-4-4-3-3-4-4-5-5-4-4-3-3-4---------| 
D|---------------------------------------| 
A|---------------------------------------| 
E|---------------------------------------| 
 
 
E|---------------------------------------| 
B|-5-5-4-4-3-3-4-4-5-5-4-4-3-3-4---------| 
G|---------------------------------------| 
D|---------------------------------------| 
A|---------------------------------------| 
E|---------------------------------------| 
 
 
E|-5-5-4-4-3-3-4-4-5-5-4-4-3-3-4---------| 
B|---------------------------------------| 
G|---------------------------------------| 
D|---------------------------------------| 
A|---------------------------------------| 
E|---------------------------------------| 
 
2ª-parte: solo final (Normal) 
 
E|-10-10-8-8-5-5-------------------------| 
B|---------------------------------------| 
G|---------------------------------------| 
D|---------------------------------------| 
A|---------------------------------------| 
E|---------------------------------------| 
 
              Repete tudo. 
 
Obs. As cordaas precisam estar bem afinadas para que a 
música fique legal.  
 
 

	  

Search Paypal
auto scroll beats size up size down change color hide chords drawings
tab show chords e-chords YouTube Clip e-chords hide all tabs e-chords go to top tab