The Who

home > The Who

Batman Tab

The Who

Difficulty: BeginnerBeginner

by Pete%5FTownshend

tuner correct add songbook print version text version save to e-mail
chordsukulelecavacokeyboardtabbassdrumsharmonicsflute Guitar Pro
chords

Batman

  		  D7 (no chord) 
||----------------|----------------|----------------|----------------|| 
||----------------|----------------|----------------|----------------|| 
||.---------------|----------------|----------------|---------------.|| 
||.---------------|----------------|----------------|---------------.|| 
||7-7-6-6-5-5-6-6-|7-7-6-6-5-5-6-6-|7-7-6-6-5-5-6-6-|7-7-6-6-5-5-6-6-|| 
||----------------|----------------|----------------|----------------|| 
  {palm mute} 
 
  D7 
  Batman!             Batman! 
||---4-----|--4------|4--4-----|--4-----4-----| 
||---3-----|--3-0h3--|3--3-----|--3-0h3---0---| 
||---4-----|---------|4--4-----|--4-----------| 
||2------0h|2--------|2------2/|2-------------| 
||---------|---------|---------|--------------| 
||---------|---------|---------|--------------| 
 
 G7                    D7                       
 Batman!               Batman!                  
|3--3-----|--3----3---|---4------|------4-----| 
|2--2-----|--2-0h2-2--|---3------|--0h3---3---| 
|2--2-----|2-2--------|---4------|------------| 
|2--2----2|-----------|2-------2/|2-----------| 
|---------|-----------|----------|------------| 
|---------|-----------|----------|------------| 
 
 A7               G7               D7 
 Batman!          Batman!          Batman! 
|----------------|----------------|----------------|----------------| 
|----------------|----------------|----------------|----------------| 
|----------------|----------------|----------------|----------------| 
|----------------|----------------|2-2-1-1-0-0-1-1-|2-2-1-1-0-0-1-1-| 
|2-2-1-1-0-0-1-1-|0-0-------------|----------------|----------------| 
|----------------|----4-4-3-3-4-4-|----------------|----------------| 
 
  D7 
  Batman!         Batman! 
||---------|0----|0--------|0----| 
||---------|3----|3--------|3----| 
||4--------|4----|4--------|4----| 
||2------2-|2----|2------2/|2----| 
||-------2-|-----|-------2-|-----| 
||---------|-----|---------|-----| 
 
 G7                 D7               A7      G7 
 Batman!            Batman!          Batman! Batman! 
|3---------|3------|0------|0------|5------|3--------| 
|2---------|2------|3------|3------|4------|2--------| 
|2---------|2------|4------|4------|4------|2--------| 
|2---------|2------|2------|2------|4------|2--------| 
|----------|-------|-------|-------|-------|---------| 
|----------|-------|-------|-------|-------|---------| 
 
 D7 
 Batman! 
|0--------|0---------| 
|3--------|3---------| 
|4--------|4---------| 
|2--------|2------1-1| 
|---------|----------| 
|---------|----------| 
 
  {guitar tacit; gtr arr for bass} 
||----------------|----------------|----------------|----------------| 
||----------------|----------------|----------------|----------------| 
||----------------|----------------|----------------|----------------| 
||2-2-1-1-0-0-1-1-|2-2-1-1-0-0-1-1-|2-2-1-1-0-0-1-1-|2-2-1-1-0-0-1-1-| 
||----------------|----------------|----------------|----------------| 
||----------------|----------------|----------------|----------------| 
 
|----------------|----------------|----------------|----------------| 
|----------------|----------------|----------------|----------------| 
|2-2-1-1-0-0-1-1-|2-2-1-1-0-0-1-1-|----------------|----------------| 
|----------------|----------------|2-2-1-1-0-0-1-1-|2-2-1-1-0-0-1-1-| 
|----------------|----------------|----------------|----------------| 
|----------------|----------------|----------------|----------------| 
 
                                   D7 
                                   {gtr reenters} 
|----------------|----------------|------4---------|-------------| 
|----------------|----------------|------3---------|3------3-3-3-| 
|4-4-3-3-2-2-3-3-|2-2-1-1-0-0-1-1-|------4--------1|1------1-1-1-| 
|----------------|----------------|2-2---2--------2|2------2-2-2-| 
|----------------|----------------|----------------|-------------| 
|----------------|----------------|----------------|-------------| 
 
  D7 
  Batman!                           Batman! 
||--4---4---4---4-|--4---4---4---4-|--4---4---4---4-|--4---4-----------| 
||--3---3---3---3-|--3---3---3---3-|--3---3---3---3-|--3---3-----------| 
||--4---4---4---4-|--4---4---4---4-|--4---4---4---4-|--4---4-4^-4^-4^\2| 
||2-2-2-2-2-2-2-2-|2-2-2-2-2-2-2-2-|2-2-2-2-2-2-2-2-|2-2-2-2-----------| 
||----------------|----------------|----------------|------------------| 
||----------------|----------------|----------------|------------------| 
 
|G7        |          |D7     |        |A7          |G7          | 
 Batman!               Batman!          Batman! It's Batman! 
|3-3--3--3-|3-3--3--3-|4-4----|4-4-----|5-5---5-----|3-3-3---3---| 
|2--2--2--2|2--2--2--2|3-3----|3-3-----|4-4-4-4-4---|2-2-2-2-2-2-| 
|2---2--2--|2---2--2--|4-4----|4-4-----|4---4---4---|2-2---2---2-| 
|2---------|2---------|2-2---2|2-2-----|4---4---4---|2-2---2---2-| 
|----------|----------|-------|--------|------------|------------| 
|----------|----------|-------|--------|------------|------------| 
 
|D7        |          | 
 Batman! 
|0-0-------|-----0----| 
|3-3-------|-----3----| 
|4-4---4-4-|4----4----| 
|2-2---2-2-|2----2----| 
|----------|----------| 
|----------|----------| 

	  

Search Paypal
auto scroll beats size up size down change color hide chords drawings
tab show chords e-chords YouTube Clip e-chords hide all tabs e-chords go to top tab