Temas de Filmes

home > Temas de Filmes

Tubarão Tab

Temas de Filmes

Difficulty: ExpertExpert

by Ney+Simmons

tuner correct add songbook print version text version save to e-mail
chordsukulelecavacokeyboardtabbassdrumsharmonicsflute Guitar Pro
chords

Tubarão

	   
  Durante a mùsica toda o Baixo fica assim: 
A------------------------------------------------------- 
E-0---1-0-1-0-1-0-1-0-1-0-1-0--------------------------- 
 
Violão: 
E-------------------------------------0----------------- 
B------2----------------------------6p------------------ 
G----0----------------------------6p-------------------- 
D---1---------------------------4p---------------------- 
A------------------------------6p----------------------- 
E-2------0-1-0-1-0-1-0-1----------------0-1-0-1-0-1----- 
   aproveite bem essa cifra... 

	  

there isn't a video lesson for this song

request
Search Paypal
auto scroll beats size up size down change color hide chords drawings
tab show chords e-chords YouTube Clip e-chords hide all tabs e-chords go to top tab