Temas de Filmes

home > Temas de Filmes

Top Gun Tab

Temas de Filmes

Difficulty: BeginnerBeginner

by Lucaslcamv

tuner correct add songbook print version text version save to e-mail
chordsukulelecavacokeyboardtabbassdrumsharmonicsflute Guitar Pro
chords

Top Gun

	  e|---------------|--------------------|-------------------|----------------| 
B|----8---8--6p5-|-6p5----------------|-5-------5-6---5---|-4/5------------| 
G|-5-------------|-----7---7-----5h7--|----7------------5-|-----7----dive--| 
D|---------------|--------------------|-------------------|----------------| 
A|---------------|--------------------|-------------------|----------------| 
E|---------------|--------------------|-------------------|----------------| 
  								      w.bar 

e|---------------|--------------------|-------------------|---------------| 
B|----8---8--6p5-|-6p5----------------|-5-------5-6---5---|-8---dive------| 
G|/5-------------|-----7---7-----5h7--|----7------------5-|---------------| 
D|---------------|--------------------|-------------------|---------------| 
A|---------------|--------------------|-------------------|---------------| 
E|---------------|--------------------|-------------------|---------------| 
.                                                                                               w.bar 



e|----------------|-------------------|----------------------|-------------| 
B|----14-14-12p11-|-12p11-------------|-11-------11h12-11----|-9/11--------| 
G|-11-------------|-------13-13-11h13-|----13-------------11-|------13-dive| 
D|----------------|-------------------|----------------------|-------------| 
A|----------------|-------------------|----------------------|-------------| 
E|----------------|-------------------|----------------------|-------------| 


e|----------------|-------------------|----------------------|-------------| 
B|----14-14-12p11-|-12p11-------------|-11----11-11h12-11----|-14~~~~------| 
G|-11-------------|-------13-13-11h13-|----13-------------11-|-------------| 
D|----------------|-------------------|----------------------|-------------| 
A|----------------|-------------------|----------------------|-------------| 
E|----------------|-------------------|----------------------|-------------| 
					 



e|---------------|--------------------|-------------------|----------------| 
B|----8---8--6p5-|-6p5----------------|-5-------5h6---5---|-4/5------------| 
G|-5-------------|-----7---7-----5h7--|----7------------5-|-----7----dive--| 
D|---------------|--------------------|-------------------|----------------| 
A|---------------|--------------------|-------------------|----------------| 
E|---------------|--------------------|-------------------|----------------| 
  								      w.bar 


	   
e|---------------|--------------------|-------------------|----------------| 
B|----8--ph8--6p5|-6p5----------------|---5-----5-6---5---|----------------| 
G|/5-------------|-----7---7-----5h7--|------7----------7-|-7p5-5-dive-----| 
D|---------------|--------------------|-------------------|----------------| 
A|---------------|--------------------|-------------------|----------------| 
E|---------------|--------------------|-------------------|----------------| 
                                                                                              w.bar 




    
   nh 
e|-------------------|--------------------|-------------------|----------------| 
B|-12-----8---8--6p5-|-6p5----------------|-5-------5h6---5---|-5--------------| 
G|-12--5-------------|-----7---7-----5h7--|----7------------5-|-----7----dive--| 
D|-12----------------|--------------------|-------------------|----------------| 
A|-12----------------|--------------------|-------------------|----------------| 
E|-------------------|--------------------|-------------------|----------------| 
  .							                   w.bar 



e|---------------|--------------------|-------------------|----------------| 
B|----8---8--6p5-|-6p5----------------|-5-------5h6---5---|--8---dive------| 
G|/5-------------|-----7---7-----5h7--|----7------------5-|----------------| 
D|---------------|--------------------|-------------------|----------------| 
A|---------------|--------------------|-------------------|----------------| 
E|---------------|--------------------|-------------------|----------------| 
.                                                                                              w.bar 



e|----------------|-------------------|----------------------|---------------| 
B|----14-14-12p11-|-12p11-------------|-11-------11h12-11----|sc11-----------| 
G|-11-------------|-------13-13-11h13-|----13-------------11-|---13-dive-----| 
D|----------------|-------------------|----------------------|---------------| 
A|----------------|-------------------|----------------------|---------------| 
E|----------------|-------------------|----------------------|---------------| 


                          
e|----------------|---------------------|----------------------|-------------| 
B|----14-14-12p11-|-12p11---------------|-11----11-11-12-11----|-14----------| 
G|-11-------------|-------13-ph13-11-13-|----13-------------11-|-------------| 
D|----------------|---------------------|----------------------|-------------| 
A|----------------|---------------------|----------------------|-------------| 
E|----------------|---------------------|----------------------|-------------| 



				. 				 
e|---------------|--------------------|-------------------|------------------| 
B|----8---8--6p5-|-6p5----------------|-5-------5h6---5---|-4/5--------------| 
G|-5-------------|-----7---7-----5h7--|----7------------5-|-----7--nh5---nh7-| 
D|---------------|--------------------|-------------------|------------------| 
A|---------------|--------------------|-------------------|------------------| 
E|---------------|--------------------|-------------------|------------------| 
  								           w.bar 

    
e|--------------|--------------------|--------------|---------------------| 
B|----8---8--6p5|-6p5----------------|--------------|---------------------| 
G|-5------------|-----7---7-----5h7--|--------------|---------------------| 
D|--------------|--------------------|-5--3-2-3-2---|---------------------| 
A|--------------|--------------------|------------5-|-53-3--dive---------| 
E|--------------|--------------------|--------------|---------------------| 
  								 w.bar 



e|-------------------------|-----------------------------| 
B|-------------------------|-----------------------------| 
G|-5-5-x-x-x-x-5-5-x-x-x-x-|-3-3-x-x-x-x-3-3-x-x-x-x-----| 
D|-5-5-x-x-x-x-5-5-x-x-x-x-|-3-3-x-x-x-x-3-3-x-x-x-x--8--| 
A|-3-3-x-x-x-x-3-3-x-x-x-x-|-1-1-x-x-x-x-3-3-x-x-x-x-----| 
E|-------------------------|-----------------------------| 


e|-------------------------|----------------------------------| 
B|-------------------------|----------------------------------| 
G|-------------------------|--7-------------------------------| 
D|-7h8p7-5--109/10--------|--7-------------------------------| 
A|-----------87/8---------|--5-------------------------------| 
E|-------------------------|----------------------------------| 

                          
e|-------------------------|----------------------------------| 
B|-------------------------|----------------------------------| 
G|---------------3bf-3bf---|-ph3bf~~~~--------------3bf~~~~r--| 
D|-------------------------|----------------------------------| 
A|-3~~---------------------|----------------------------------| 
E|-------------------------|----------------------------------| 

e|-------------------------|----------------------------------| 
B|-------------------------|----------------------------------| 
G|----2h3-2----------------|----------------------------------| 
D|--------------3-3-2-3----|--ph3bf~~r----nh5~~~~~~~----------| 
A|-------------------------|----------------------------------| 
E|-------------------------|----------------------------------| 


e|-------------------------|-12--12-13-13/15------------------| 
b|-------------------------|---13------------15/17------------| 
g|-------------------------|----------------------------------| 
D|----------------10-------|----------------------------------| 
A|-7-7---8---10------------|----------------------------------| 
E|-----8---8----8-----8----|----------------------------------| 



e|---------------------------------------------|-----------------------------------| 
B|--17p13-------15p11----18p17p13-15--------18-|--17p13-15-------------------------| 
G|-------15-(15)------10--------------15-17----|------------15bf~~~~~---7bh~r--5---| 
D|---------------------------------------------|-----------------------------------| 
A|---------------------------------------------|-----------------------------------| 
E|---------------------------------------------|-----------------------------------| 
             


e|------------------|--------------------------------------| 
B|---ph6bf----ph6bf-|--------------------------------------| 
G|--------(5)-------|--5-7---5-----------------------------| 
D|------------------|------8---7-8-5-7---5-----------------| 
A|------------------|------------------8---7bhr------------| 
E|------------------|-------------------------------8~~~---| 



e|---------------------------------------------|-----------------------------------------------------------| 
B|---------------------------------------------|-----------------------------------------------------------| 
G|---------------------------------------------|--8h9---------8bh--------8bh-------8bh--------8bh----------| 
D|---------------------------------------------|-----(10)-(8)-----(10)-9----(10)-9------(10)-9---(10)-9----| 
A|--6h7--------6h7--------6h7-------6h7--------|-----------------------------------------------------------| 
E|-----(8)-(6)----(8)-(6)----(8)-(6)----(8)-(6)|-----------------------------------------------------------| 



e|-------------------------------------------|-----------------------------------------------------12-| 
B|-------------------------------------------|--------------------------------------------------------| 
G|-8h9--------8h9--------8h9--------8h9---10-|-10bf-10br-8-10bf-10br-8-10bf-10br-8-10bf-10br-8--------| 
D|----(10)-(8)---(10)-(8)---(10)-(8)----10---|--------------------------------------10----------------| 
A|-------------------------------------------|--------------------------------------------------------| 
E|-------------------------------------------|--------------------------------------------------------| 


e|----12----10---------12----10--------12----10---------12-|----12----10---------12----10--------12----10---------12-| 
B|-------13----11---------13----11--------13----11-(11)----|-------13----11---------13----11--------13----11-(11)----| 
G|---------------------------------------------------------|---------------------------------------------------------| 
D|----------------(10)------------(10)---------------------|----------------(10)------------(10)---------------------| 
A|---------------------------------------------------------|---------------------------------------------------------| 
E|---------------------------------------------------------|---------------------------------------------------------| 


e|--=------------------------------------------|-----------------------------------------------------------| 
B|---------------------------------------------|-----------------------------------------------------------| 
G|---------------------------------------------|-----------------------------------------------------------| 
D|---------------------------------------------|-----------------------------------------------------------| 
A|---------------------------------------------|-----------------------------------------------------------| 
E|---------------------------------------------|-----------------------------------------------------------| 


e|-12bh~r--10h12----10--------------------|-------------------------------------------------------| 
B|---------------13----ph13bf--11--12/4p0-|-------------------------------------------------------| 
G|----------------------------------------|-0h4h7t12p7p4p0h4h7t12p7p4p0h4h7t12p7p4p0h4h7t12p7p4p0-| 
D|----------------------------------------|-------------------------------------------------------| 
A|----------------------------------------|-------------------------------------------------------| 
E|----------------------------------------|-------------------------------------------------------| 


e|-----------------------------------------------------------------------------------------------------------| 
B|-----------------------------------------------------------------------------------------------------------| 
G|-0h4h7t10p7p4p0h4h7t10p7p4p0h4h7t10p7p4p0h4h7t10p7p4p0h4h7t10p7p4p0h4h7t10p7p4p0h4h7t10p7p4p0h4h7t10p7p4p0-| 
D|-----------------------------------------------------------------------------------------------------------| 
A|-----------------------------------------------------------------------------------------------------------| 
E|-----------------------------------------------------------------------------------------------------------| 


e|-----------------------------------------------------------------------------------------------------------| 
B|-----------------------------------------------------------------------------------------------------------| 
G|-0h4h7t12p7p4p0h4h7t12p7p4p0h4h7t12p7p4p0h4h7t12p7p4p0h4h7t14p7p4p0h4h7t14p7p4p0h4h7t14p7p4p0h4h7t14p7p4p0-| 
D|-----------------------------------------------------------------------------------------------------------| 
A|-----------------------------------------------------------------------------------------------------------| 
E|-----------------------------------------------------------------------------------------------------------| 


e|-----------------------------------------------------------------------------------------------------------| 
B|-----------------------------------------------------------------------------------------------------------| 
G|-0h4h7t16p7p4p0h4h7t16p7p4p0h4h7t16p7p4p0h4h7t16p7p4p0h4h7t17p7p4p0h4h7t17p7p4p0---------------------------| 
D|-----------------------------------------------------------------------------------------------------------| 
A|-----------------------------------------------------------------------------------------------------------| 
E|-----------------------------------------------------------------------------------------------------------| 
		 


e|---------------|--------------------|-------------------|----------------| 
B|----8---8--6p5-|-6p5----------------|-5-------5-6---5---|-5--------------| 
G|-5-------------|-----7---7-----5h7--|----7------------5-|----7--nh5dive--| 
D|---------------|--------------------|-------------------|----------------| 
A|---------------|--------------------|-------------------|----------------| 
E|---------------|--------------------|-------------------|----------------| 


   
e|---------------|--------------------|-------------------|----------------| 
B|----8--ph8--6p5|-6p5----------------|---5-----5-6---5---|----------------| 
G|/5-------------|-----7---7-----5h7--|------7----------7-|-7p5-5-dive-----| 
D|---------------|--------------------|-------------------|----------------| 
A|---------------|--------------------|-------------------|----------------| 
E|---------------|--------------------|-------------------|----------------| 
                                                                         w.bar 


e|---------------|--------------------|-------------------|---------------------| 
B|----8---8--6p5-|-6p5----------------|-5-------5-6---5---|-5-------------------| 
G|-5-------------|-----7---7-----5h7--|----7------------5-|----7----------------| 
D|---------------|--------------------|-------------------|---------------------| 
A|---------------|--------------------|-------------------|--------sh3bf--------| 
E|---------------|--------------------|-------------------|---------------------| 
                                                                           dive. 


e|---------------|--------------------|-------------------|----------------| 
B|----8--ph8--6p5|-6p5----------------|---5-----5-6---5---|----------------| 
G|/5-------------|-----7---7-----5h7--|------7----------7-|-7p5-5-dive-----| 
D|---------------|--------------------|-------------------|----------------| 
A|---------------|--------------------|-------------------|----------------| 
E|---------------|--------------------|-------------------|----------------| 
	  

Search Paypal
auto scroll beats size up size down change color hide chords drawings
tab show chords e-chords YouTube Clip e-chords hide all tabs e-chords go to top tab