Temas de Filmes

home > Temas de Filmes

O Poderoso Chef„o (The Godfather Theme) Tab

Temas de Filmes

Difficulty: ExpertExpert

by Jedi+Master

tuner correct add songbook print version text version save to e-mail
chordsukulelecavacokeyboardtabbassdrumsharmonicsflute Guitar Pro
chords

O Poderoso Chef„o (The Godfather Theme)

	  Vers„o 1 
---------- 
1.  "Main Theme from The Godfather (The Godfather Waltz)" 
	composed by Nino Rota 
 
INTRO: 
----------------------|------------------------------- 
-2---1-2-3---2-2------|--2---1-2-3---2-2-------------- 
------------------2---|--------------------1---------- 
----------------------|------------------------------- 
----------------------|------------------------------- 
----------------------|------------------------------- 
 
---------0--------------|----------------------------- 
-2---1-2-----2-1--------|--------2---1---------------- 
-------------------4-2--|--2-1-2-------1-------------- 
------------------------|----------------------------- 
------------------------|----------------------------- 
------------------------|----------------------------- 
 
------------------------|----------------------------- 
-2---1-2-3---2-2--------|--2---1-2-3---2-2------------ 
------------------2-----|-------------------1--------- 
------------------------|----------------------------- 
------------------------|----------------------------- 
------------------------|----------------------------- 
 
----------0......------------------------------------ 
-2---1-2--------------------------------------------- 
----------------------------------------------------- 
----------------------------------------------------- 
----------------------------------------------------- 
----------------------------------------------------- 
 
BODY: 
 
-----------------------|------------------------------ 
---4---3-4-5---4-4-----|--4---3-4-5---4-4------------- 
--------------------4--|-------------------3---------- 
-----------------------|------------------------------ 
-----------------------|------------------------------ 
-----------------------|------------------------------ 
 
---------2--------------|--------------------------- 
-4---3-4-----4-3---6-4--|--------4---3-------------- 
------------------------|--4-3-4-------3------------ 
------------------------|--------------------------- 
------------------------|--------------------------- 
------------------------|--------------------------- 
 
-----------------------|------------------------------ 
-----------4-6-7-------|--7-6-4-3---4-4--------------- 
-3.....5-7-------------|------------------------------ 
-----------------------|------------------------------ 
-----------------------|------------------------------ 
-----------------------|------------------------------ 
 
(with this part where the 4-5-4-3 happens on the 2nd string, I just 
picked the string and shifted the fingers instead of picking each time. 
Sounded more natural.) 
 
----------------------------------------------------- 
-4-3---4-5-4-3---4-5-4-3---4-5-4-2------------------- 
-----------------------------------4-3-1-0---1-3----- 
----------------------------------------------------- 
----------------------------------------------------- 
----------------------------------------------------- 
 
----------------------------------------------------- 
-4-3---4-5-4-3---4-5-4-3---4-7-6-4-2-1--------------- 
---------------------------------------3-2---3-3----- 
----------------------------------------------------- 
----------------------------------------------------- 
----------------------------------------------------- 
 
-4---3-4-5---4-4----|--4---3-4-5---4-4---------------- 
-----------------5--|------------------4-------------- 
--------------------|--------------------------------- 
--------------------|--------------------------------- 
--------------------|--------------------------------- 
--------------------|--------------------------------- 
 
-4---3-4-7---4-3---7-4--|--------4---3---------------- 
------------------------|--5-4-5-------4-------------- 
------------------------|----------------------------- 
------------------------|----------------------------- 
------------------------|----------------------------- 
------------------------|----------------------------- 
 
------------3-4-6-7----|--7-6-4-3---4-4--------------- 
-4........6------------|------------------------------ 
-----------------------|------------------------------ 
-----------------------|------------------------------ 
-----------------------|------------------------------ 
-----------------------|------------------------------ 
 
(end.) 
 
 
2.  "Love Theme from The Godfather" 
	composed by Nino Rota 
	This piece is repetitive so I generally break it into four parts, 
	with a short "interlude" which appears twice throughout the piece. 
 
PART ONE 
----9--12--11--9--12--9--11--9----------------------- 
-9------------------------------10--12--9------------ 
----------------------------------------------------- 
----------------------------------------------------- 
----------------------------------------------------- 
----------------------------------------------------- 
 
----9--12--11--9--12--9--11--9----------------------- 
-9------------------------------9--8--7-------------- 
----------------------------------------------------- 
----------------------------------------------------- 
----------------------------------------------------- 
----------------------------------------------------- 
 
--------8--11......-|---------8--9-------------------- 
-7--10--------------|--7--10-------------------------- 
--------------------|--------------------------------- 
--------------------|--------------------------------- 
--------------------|--------------------------------- 
--------------------|--------------------------------- 
 
----------------------------------------------------- 
--------12--10--9--12--10--10--9--9------------------ 
-----9----------------------------------------------- 
-11----------------------------------10--11---------- 
----------------------------------------------------- 
----------------------------------------------------- 
 
INTERLUDE 
-9--9--8--7-----|--11--11--9-------------------------- 
----------------|-------------10--9------------------- 
----------------|------------------------------------- 
----------------|------------------------------------- 
----------------|------------------------------------- 
----------------|------------------------------------- 
 
----------------|------------------------------------- 
-9--12--9--7----|--7--10--8--9------------------------ 
----------------|------------------------------------- 
----------------|------------------------------------- 
----------------|------------------------------------- 
----------------|------------------------------------- 
 
PART TWO 
----9--12--11--9--12--9--11--9----------------------- 
-9------------------------------10--12--9------------ 
----------------------------------------------------- 
----------------------------------------------------- 
----------------------------------------------------- 
----------------------------------------------------- 
 
----9--12--11--9--12--9--11--9----------------------- 
-9------------------------------9--8--7-------------- 
----------------------------------------------------- 
----------------------------------------------------- 
----------------------------------------------------- 
----------------------------------------------------- 
 
--------8--11-------|---------8--9-------------------- 
-7--10--------------|--7--10-------------------------- 
--------------------|--------------------------------- 
--------------------|--------------------------------- 
--------------------|--------------------------------- 
--------------------|--------------------------------- 
 
-------------------------------------8--9------------- 
--------12--10--9--12--10--10--9--9------------------- 
-----9------------------------------------------------ 
-11--------------------------------------------------- 
------------------------------------------------------ 
------------------------------------------------------ 
 
(Now play the INTERLUDE again, then add a 12 on the 2nd string onto:) 
 
PART THREE 
-----12--15--14--12--15--12--14--12------------------ 
-12----------------------------------13--15--12------ 
----------------------------------------------------- 
----------------------------------------------------- 
----------------------------------------------------- 
----------------------------------------------------- 
 
-----12--15--14--12--15--12--14--12------------------ 
-12----------------------------------12--11--10------ 
----------------------------------------------------- 
----------------------------------------------------- 
----------------------------------------------------- 
----------------------------------------------------- 
 
---------11--14----|----------11--12------------------ 
-10--13------------|--10--12-------------------------- 
-------------------|---------------------------------- 
-------------------|---------------------------------- 
-------------------|---------------------------------- 
-------------------|---------------------------------- 
 
------------------------------------------------------ 
---------15--13--12--15--13--13--12--12--11--12------- 
-----12----------------------------------------------- 
-14--------------------------------------------------- 
------------------------------------------------------ 
------------------------------------------------------ 
 
(No INTERLUDE.  Move on to:) 
 
FOURTH SECTION 
-----12--15--14--12--15--12--14--12------------------- 
-12----------------------------------13--15--12------- 
------------------------------------------------------ 
------------------------------------------------------ 
------------------------------------------------------ 
------------------------------------------------------ 
 
-----12--15--14--12--15--12--14--12------------------- 
-12----------------------------------12--11--10------- 
------------------------------------------------------ 
------------------------------------------------------ 
------------------------------------------------------ 
------------------------------------------------------ 
 
---------11--14------|----------11--12----------------- 
-10--13--------------|--10--12------------------------- 
---------------------|--------------------------------- 
---------------------|--------------------------------- 
---------------------|--------------------------------- 
---------------------|--------------------------------- 
 
-----------------------------------------11--12------- 
---------15--13--12--15--13--13--12--12--------------- 
-----12----------------------------------------------- 
-14--------------------------------------------------- 
------------------------------------------------------ 
------------------------------------------------------ 
 
(ends.) 
 
Vers„o 2 
------- 
The Godfather Theme 
Guns N' Roses 
Tabbed by:     Carl Moran 
               [email protected] 
 
I wont include the timing because if you know the song you will know how to play it 
 
                    ~~                      ~~             1/2       1/2  
|-------------------------------------------------------------------------------| 
|--14-13-14-15-14-14------14-13-14-15-14-14-------14-13-14-17^--14-13-16^--14---| 
|--------------------14\--------------------13\---------------------------------| 
|-------------------------------------------------------------------------------| 
|-------------------------------------------------------------------------------| 
|-------------------------------------------------------------------------------| 
 
   f    f    f  ~~                                        ~~ 
|----------------------------10-13-12-10-13-10-12-10----------------------------| 
|-14^r------14^r----------10-------------------------11-13-10-------------------| 
|------14^r------13-------------------------------------------------------------| 
|-------------------------------------------------------------------------------| 
|-------------------------------------------------------------------------------| 
|-------------------------------------------------------------------------------| 
 
                                   ~~          f           f  
|----10-13-12-10-13-10-12-10-----------------9-12^------9-10^---------| 
|-10-------------------------5/10-9-8---8-11-------8-11---------------| 
|---------------------------------------------------------------------| 
|---------------------------------------------------------------------| 
|---------------------------------------------------------------------| 
|---------------------------------------------------------------------| 
 
Unsure about this.  I modified it from the original score from the godfather theme. 
 
|--------------------------------------------------| 
|-------13-11-10-13-11-11-11-10--------------------| 
|----10--------------------------------------------| 
|-12----------------------------11-12--------------| 
|--------------------------------------------------| 
|--------------------------------------------------| 
 
                       ~~        ~~~ 
|-10-10-9-8-12-12-10-------------------------------| 
|--------------------11-10---10-9-8---8h11-9-10----| 
|--------------------------------------------------| 
|--------------------------------------------------| 
|--------------------------------------------------| 
|--------------------------------------------------| 
 
Well thats all I know.  All suggestions and corrections welcome. 
Please be kind, its my first attempt at this.        Carl Moran. 
 
Notation used: 
^  =  bend (how much is written above) 
~~ =  Vibrato 
p  =  pull off 
h  =  hammer on 
/  =  slide up 
\  =  slide down 
 
----------------------------------------------------------------- 
 
OTHER VERSION: 
 
The Godfather theme 
Guns N' Roses 
 
Tabbed by:     Billy Saunders 
               [email protected] 
 
This song is played slightly different everytime Slash does it,  
so this is what I got from my bootlegged copy... 
(Also I left out a lot of slides and vibrato I figure you can manage 
to put it in yourself) 
 
Tune down 1/2 step...  Eb Ab Db Gb Bb Eb 
 
|----------------------------------------------------------------| 
|-15---14-15-16--15-15---------15---14-15-16--15-15--------------| 
|----------------------15---------------------------14-----------| 
|----------------------------------------------------------------| 
|----------------------------------------------------------------| 
|----------------------------------------------------------------| 
                         br        br      br     br      
|------------------------/\--------/\-------------/\-------------| 
|-15---14-15-18--15-14-15-(15)---14-(14)---/\---14-(14)----------| 
|----------------------------------------14-(14)--------14-------| 
|----------------------------------------------------------------| 
|----------------------------------------------------------------| 
|----------------------------------------------------------------| 
 
|----10-13-12-10-13-10-12-10-------------------------------------| 
|-10-------------------------11-13-10----------------------------| 
|----------------------------------------------------------------| 
|----------------------------------------------------------------| 
|----------------------------------------------------------------| 
|----------------------------------------------------------------| 
                             s 
|----10-13-12-10-13-10-12-10-------------------------------------| 
|-10-------------------------/10-9-8-----------------------------| 
|----------------------------------------------------------------| 
|----------------------------------------------------------------| 
|----------------------------------------------------------------| 
|----------------------------------------------------------------| 
  s        b            b/ s 
|-----------/-------6-9-9----------------------------------------| 
|----6-10-10-----/8---------------13-11-10-13-11-10-10-----------| 
|-/7---------------------------10--------------------------------| 
|--------------------------/12---------------------------11-12---| 
|----------------------------------------------------------------| 
|----------------------------------------------------------------| 
              s 
|-10-10-9-8-10/12-10-----------------------------------------10--| 
|--------------------11-10----10-13-10-8----8-11-9-10-----10-----| 
|----------------------------------------------------------------| 
|----------------------------------------------------------------| 
|----------------------------------------------------------------| 
|----------------------------------------------------------------| 
                                b   b   b 
|-13^12^10--13^12^10--13^12^10---/---/--/--------------------------| 
|------------------------------12--12--12-12-10-12-10-9-10-12-10-9-| 
|------------------------------------------------------------------| 
|------------------------------------------------------------------| 
|------------------------------------------------------------------| 
|------------------------------------------------------------------| 
 
|-13-12-10-9-10-12-10-9----9-------------------------------------| 
|-----------------------10---10-12-10-9----9----12---------------| 
|---------------------------------------11---11----11-9----9-----| 
|-------------------------------------------------------11---11--| 
|----------------------------------------------------------------| 
|----------------------------------------------------------------| 
  s 
|-----------------------------9-10-------------------------------| 
|--------13-11-10-13-11-10-10------------------------------------| 
|-----10---------------------------------------------------------| 
|-/12------------------------------------------------------------| 
|----------------------------------------------------------------| 
|----------------------------------------------------------------| 

	  

there isn't a video lesson for this song

request
Search
auto scroll beats size up size down change color hide chords drawings
tab show chords e-chords YouTube Clip e-chords hide all tabs e-chords go to top tab