Temas de Filmes

home > Temas de Filmes

Star Wars - Marcha Imperial Tab

Temas de Filmes

Difficulty: BeginnerBeginner

tuner correct add songbook print version text version save to e-mail
chordsukulelecavacokeyboardtabbassdrumsharmonicsflute Guitar Pro
chords

Star Wars - Marcha Imperial

	    
Intro: 

E-------------------------------- 
B-------------------------------- 
G---6-6-6-6-5-------------------- 
D-------------7------------------ 
A-------------------------------- 
E-------------------------------- 

2x 

E-------------------------------- 
B--------------0----0------------ 
G-------------------------------- 
D------6-6-6-----6----6---------- 
A------------7-----7------------- 
E-------------------------------- 


E-------------------------------- 
B----4-4-4-5-------0------------- 
G------------4------------------- 
D--------------5-----6----------- 
A----------------7--------------- 
E-------------------------------- 


E----4---4-4-3------------------- 
B--------------7-6-5-6---3------- 
G----------------------2--------- 
D-------------------------------- 
A-------------------------------- 
E-------------------------------- 


E-------------------------------- 
B-----2-1-------------0-----0---- 
G---------4-3-4---0-----1-----1-- 
D---------------2---2-----2------ 
A-------------------------------- 
E-------------------------------- 

2x 

Fim. 


	  

Search Paypal
auto scroll beats size up size down change color hide chords drawings
tab show chords e-chords YouTube Clip e-chords hide all tabs e-chords go to top tab