Temas de Filmes

home > Temas de Filmes

Missão impossível (ver. 2) Tab

Temas de Filmes

Difficulty: BeginnerBeginner

by Dek+00

tuner correct add songbook print version text version save to e-mail
chordsukulelecavacokeyboardtabbassdrumsharmonicsflute Guitar Pro
chords

Missão impossível (ver. 2)

	   
e|--------------------------------------------------------------------------- 
B|-------------------------------------------------------------------------- 
G|-------------------------------------------------------------------------- 
D|-------------------------------------------------------------------------- 
A|-------------2--4-------------------------------2--4------------------- 
E|--3-3-3-3-------3-3-3-3--1-2--3-3-3-3--------3-3-3-3--1-2-- 
 
e assim  vai repetindo... 
 
         ou então...... 
 
 
e|---------------------------------------------------------------------------- 
B|--------------------------------------------------------------------------- 
G|--------------------------------------------------------------------------- 
D|------------4-6------------------------------4-6------------------------ 
A|--5-5-5-5-----5-5-5-5--3-4--5-5-5-5------5-5-5-5--3-4------- 
E|--------------------------------------------------------------------------- 
	  

there isn't a video lesson for this song

request
Search Paypal
auto scroll beats size up size down change color hide chords drawings
tab show chords e-chords YouTube Clip e-chords hide all tabs e-chords go to top tab