Temas de Filmes

home > Temas de Filmes

Missão Impossível Tab

Temas de Filmes

Difficulty: ExpertExpert

by wr%5F67

tuner correct add songbook print version text version save to e-mail
chordsukulelecavacokeyboardtabbassdrummharmonicsflute Guitar Pro
chords

Missão Impossível

	  Versão 1  
--------  
Missão Impossível 1 (clássico)  
--------------------------------  
--------------------------------  
--------------------------------  
--------------------------------  
-1-1-1--1-4-6--1-1-1--1---------  
------------------------4-5-----  
  
  
  
Missão Impossível 2 (heavy!!!)  
--------------------------------  
--------------------------------  
-3-3-3--3-6-8--3-3-3--3--1-2-3--  
-3-3-3--3-6-8--3-3-3--3-6-7-----  
-1-1-1--1-4-6--1-1-1--1-6-7-----  
------------------------4-5-----  
  
  


	  

Search Paypal
auto scroll beats size up size down change color hide chords drawings
tab show chords e-chords YouTube Clip e-chords hide all tabs e-chords go to top tab