Temas de TV

home > Temas de TV

Missão Impossível Tab

Temas de TV

Difficulty: nolevelnolevel

by gustsilva

tuner correct add songbook print version text version save to e-mail
chordsukulelecavacokeyboardtabbassdrumsharmonicsflute Guitar Pro
chords

Missão Impossível

  		 
E|------------------------------------- 
B|---------------------------5--------- 
G|4h5p4h5p4h5p4h5p4h5p4--4/7----------- 
D|------------------------------------- 
A|------------------------------------- 
E|------------------------------------- 
 

 
E|------------------------------------- 
B|------------------------------------- 
G|----3-5-------------3-5-------------- 
D|5-5-----5-5-3-4-5-5-----5-5-3-4-5---- 
A|------------------------------------- 
E|------------------------------------- 
 

E|----------------------| 
B|-1---1---1------------| 
G|--2---2---2-----------| 
D|---2---1---0----------| 
A|--------------3-5-3-0-| 
E|----------------------| 
	  

Search Paypal
auto scroll beats size up size down change color hide chords drawings
tab show chords e-chords YouTube Clip e-chords hide all tabs e-chords go to top tab