Stevie Ray Vaughn and Double Trouble

Little Wing

Stevie Ray Vaughn and Double Trouble

tabs Beginner beginner

by  GIBSON_LP

save to print version add songbook text version e-mail correct tuner
chordsukulelecavacokeyboardtabbassdrumsharmonicaflute Guitar Pro
close

there isn't a video lesson for this song

chords

Little Wing

	  		Gtr I (Eb Ab Db Gb Bb Eb) - 'Stevie Ray Vaughan - clean electric' 
 
Intro 
  Q=60(16=s16) 
 4/4 
  Gtr I 
  S  E.   S E. S S E S S S a S +S  S a E 
|---12\-|---------------------------------| 
|---12\-|------x-x-----------5-(5)-5------| 
|-x-12\-|------x-x---------5h7-(7)-5------| 
|-x-----|------x-x-------5-----------5h7\-| 
|-------|--------x---5h7------------------| 
|-------|-0-------------------------------| 
 
 
  a E. S a S S S S a E S S  S  S S S 
|--------3h5p3-3----------------------| 
|----------3---3-----3-3-3-(3)-3------| 
|----------0-------4h5-5-4h=5--4------| 
|--------------------------------5----| 
|------x------------------------------| 
|-2s3--3---------3-----------------3s=| 
 
 
     |-3-|                     |-3-| |-3-| 
  E. T T T S S S S a S S a S S S S S S S S 
|------------------------------------------| 
|----5---------------5-5-----------5-------| 
|------5-----------5h7-5-----5-----5-----5-| 
|--------x-----5---------5h7-7-----5-----5-| 
|----------5-7-----------------5h7---5h7---| 
|-5--------------0-------------------------| 
 
 
  E. S a S S S S a S S S a S S S S S 
|------3h5-3-3-------------------------| 
|--------3-3-------------5-----5-------| 
|--------0-0---0-----5-5-5-----5-------| 
|--------------0-----5-7-7s8s7-5-------| 
|----------------5s7-------------7-----| 
|-0--0-----------------------------5s==| 
 
 
                                   PM  PM 
         |-3--| 
  Q  a E S  S S  S      S +E   a S S S S 
|----7h9-9h10-7---------7-(7)\-------6---| 
|------7------7-10b10.5-7-(7)\-------6---| 
|----------------------------------------| 
|----------------------------------------| 
|----------------------------------------| 
|-7----------------------------5s6-6---0-| 
 
 
          |-3-|   |-3-|         |-3-| |-3-| 
  e E S S T T T S T T T S a S S S S S S S S 
|-5-------------------------------------------| 
|-5---------------5---------------------------| 
|-5-5-5---5-------5h7p5-----5-5---------------| 
|---7-7-7-5h7p5---------7-5h7-5-----5---------| 
|---------------7---------------5h7-7-5h7-7---| 
|---------------------------------------------| 
 
 
                                  2/4 
                                     PM----------| 
                 |-3-|                   |-3-| 
  E. S a E a S S S S S E +S  E S   E S S T T T S S S 
|------5s7-7s5---5s3---3-(3)-3---|-------------------| 
|------3s5-5s3---3s1---1-(1)-1---|-------------------| 
|------4s6-6s4---4s2---2-(2)-2-0-|-------5---------5-| 
|------5s7-----5-------3-(3)---0-|---------5---------| 
|--------------------------------|-3-3-3-----3-3-3---| 
|-3--3---------3-----1-----------|-------------------| 
 
 
 4/4 
   |3-| 
   S  E S S T T S S S a S S S S  S  S S S 
|------------------------------------------| 
|------------------------------------------| 
|-(5)s7-----7-----------7-7-7-7--7------7--| 
|-------------7---7---7h9-9-7---------7-7--| 
|--3s=5-5-5-----5-5-------------10-10-7-7--| 
|-------------------0----------------------| 
 
 
                           Theme 
                   |-3-| 
  a S E. Q  Q  S S S S S    H        Q      +E. S 
|------------------------||----------0------------| 
|------------------------||-----------------------| 
|---7--------------------||-----------------------| 
|---7--------------------||-0tr2----(0tr2)--(0)---| 
|-7h9--------------0-0---||-----------------------| 
|----------------3-----3-||---------------------0-| 
 
 
  Q  S a S S S a S S a S S a S S a S S 
|--------------------------------------| 
|--------------------------------------| 
|----------------5-----5-----5-5-------| 
|----------5---5h7-7-5h7-7-5h7-5---5-5-| 
|------5s7---7-------------------5h7-5-| 
|-3------------------------------------| 
 
 
           |-3-|       |-3-|       |--3--| |-----3-----| |--3--| 
  E. S S S T T T S     S S S a    +S   S S S a     S   S S S T T 
|------5-7-5h7p5-------5---5-------------5-----------------------| 
|------5-5-5-----8b8.5-5-8-5-----------5---8-------8-------------| 
|----------------------------7b9==(7)r-------7b9==(7)r-7-5-------| 
|----------------------------------------------------------7-----| 
|------------------------------------------------------------5h7-| 
|-5--5-----------------------------------------------------------| 
 
 
  Q    E    E    S    E.   +S   S E 
|-------------------<12>-(<12>)------| 
|--------------<12>-------------x----| 
|---------<12>------------------x----| 
|----<12>----------------------------| 
|------------------------------------| 
|-0-------------------------------0S=| 
 
 
          |-3--|   |-3--|  |---3----|  |--3---| 
  Q  S S  S S  S   S  S S  S      S S  S a  S S S     S 
|------7-------7---9--8p7-----------7--------------------| 
|------7-10-7-(7)-(7)-----10b10.5-7---10-----------------| 
|----------------------------------------9h10-9-7b7.5----| 
|-----------------------------------------------------9\-| 
|--------------------------------------------------------| 
|-7------------------------------------------------------| 
 
 
  E.  S S S S S a S S S S a S S a S a S 
|----!0----------------------------------| 
|----!0-------------5---5----------------| 
|----!0---------5h7-7-5-5---5-5----------| 
|-----------5-------------5h7-7-------5--| 
|-------5-7---7-----------------5h7-5h7--| 
|----------------------------------------| 
 
 
                                        2/4 
                   |-3-|    |-3--| 
  E.  S  a E a S S S S S E +S  S S S S   E S S E S S 
|----(5)-5s7-7s5---5s3---3-(3)-3-----3-|-------------| 
|----(3)-3s5-5s3---3s1---1-(1)-----1---|-------------| 
|--------4s6-6s4---4s2---2-(2)---2-2---|-------5-----| 
|--------5s7-----5-----3---------3-----|-------5-5---| 
|--------------------------------------|-3-3-3---3-3-| 
|-3---3--------------------------------|-------------| 
 
 
 4/4 
                                                      |------3------| 
  a E S S E S S a E S S  S  S S S   a S E. Q  Q  S  S S  S  a      +S 
|---------------------------------|-------------------------------------|| 
|---------7-----------------------|-------------------------------------|| 
|-5s7-----7-7-----7-7-7-----------|---7-----------------12-14b15==(14)r-|| 
|-5s7-7---7-7-7-7h9-7-7--7----7---|---7------------14-------------------|| 
|-3s5-5-5-----0---------10-10-7-7-|-7h9---------------------------------|| 
|-------------0----------0--------|-------------------------------------|| 
 
 
                                  ~~~~~~~~~~~~~~ 
   |--3--|         |---3---|                        |--3--| 
   S  S  S        +S    S  S  E   E   +Q    +S   S  S  S  S 
|-----------------------------------------------------------| 
|-----------------------------------------------------------| 
|-14-12h14b14.5==(14)r-12-------(14)-(14)-------------------| 
|-------------------------14-14-(14)-(14)--(14)-12----------| 
|--------------------------------------------------14-13-12-| 
|-----------------------------------------------------------| 
 
 
                          ~~ 
                 |--3--|          |--3--| 
  Q  S  S  S  S  S  S  S  E   E   S  S  S 
|-----------------------------------------| 
|-----------------------------------------| 
|-----------------------------------------| 
|---------------------12------x-----------| 
|---------10-12-13s14----12-(12)-10-12-10-| 
|------12---------------------------------| 
 
 
                              ~~ 
      |-----3-----|              |--3--|  |--3--|  |3-|       |--3--| 
   a  E  a  E  a  E  a  S  S  E  S  S  S  S  S  S  S  E       S  S  S 
|---------------------------------------------------------------------| 
|---------------------------------------------------------------------| 
|-------------------------------------------------12-14b14.5-14-12----| 
|----------------------------------------12h14---------------------14-| 
|-12s14-12s14-12s14-12s14-13-12-10-12-10------------------------------| 
|----------------------------------------------12---------------------| 
 
 
                                                ~~~~ 
   |----3-----|    |----3-----|    |--3--|           |--3---|  |--3--| 
   S  a      +E    S  a      +E    S  S  S  E   E   +S   S  S  S  S  S E 
|-------------------------------------------------------------------------| 
|-15----------------------------------------------------------------------| 
|----14b16==(14)r-14-12b14==(12)r-12-----------14--(14)-------------------| 
|------------------------------------14----14-(14)------12----------------| 
|----------------------------------------------------------14-13-12-10----| 
|---------------------------------------12--------------------------------| 
 
 
                                 ~~ 
                                    |--3--|     |----3-----| 
  Q  S  S  S  a       S    S  S  E  T  T  T  S  S  a      +E 
|---------12---------12---12-12----12--------------------------| 
|-------------------------------14-12--------------------------| 
|---------12-14b15==(14)r-14-12-14-12-14p12-14-12-14b16==(14)r-| 
|------14------------------------------------------------------| 
|--------------------------------------------------------------| 
|--------------------------------------------------------------| 
 
 
                                        ~~    ~~~~~ 
   |--3--|  |-------3-------|  |--3--|     |---3----|  |3-|  |--3--|  |--3--| 
   S  S  S  S  a      +S    S  S  S  S  E  S  S     S  S  E  S  a  E  S  S  S 
|----12------------------------------------------------------------------------| 
|-12----12-15------------------------------------------------------------------| 
|-------------14b16==(14)r-12-14-12----12--------------------------------------| 
|-----------------------------------14----14p12b13----------------------12-14--| 
|--------------------------------------------------14-13-12-10-12s13s14--------| 
|------------------------------------------------------------------------------| 
 
 
                                                              ~~~~ 
                    |--3--|       |---------3----------| 
   a  S  S   S   S  S  S  S  S  S E  a  a  E  a  a  S  S  E   S   S 
|-------------------------------------------------------------------| 
|----------(12)-12--------------------------------------------------| 
|-12s14-14--12--12-------12------------------------12---------------| 
|------------------12h14-14-12-12------------------12--------12-----| 
|-----------------------------------12h13h14-12h13h14-13-12-(12)-10-| 
|-------------------------------------------------------------------| 
 
 
 2/4 
             ~~~~ 
   a  S  S   E  S  S  S  S 
|--------------------------| 
|--------------------------| 
|--------------------------| 
|-------12-(12)------------| 
|-12s14-----12----12-10----| 
|-----------------------12-| 
 
 
 4/4 
                  ~~~~~~~ 
   |------5-------|       |--3--|                  |--3---| 
   S  S  a  S  S  S  +E   T  T  T  S  S  S  S  S   E   E  E 
|-----------------------------------------------------------| 
|-----------------------------------------------------------| 
|-------------------------------------------------12--------| 
|---------------------------------------------12-(12)-12h14-| 
|-10-12-12s13-10-12-(12)-10h12p10----10-12h14-14-(14)-------| 
|---------------------------------12------------------------| 
 
 
       |--3--|                   |--3--| 
  S  s S  S  S  S  S S  s E.  s  S  S  S  s  S 
|----------------------------------------------|| 
|----------------------15----------------------|| 
|--------12----14-12------------12-14----14-14-|| 
|---14------14---------12----14-------14-------|| 
|--------10----12-10------------10-12----12-12-|| 
|---12------12---------------12-------12-------|| 
 
 
                                                |--3--| 
   a  S  S  a  S  S  a  S  S  a  S  S  a  S  S  S  S  S  +S  E. 
|---------------------------------------------------------------| 
|---------------------------------------------------------------| 
|-12s14-14-12s14-14-14s12-12----------------12------------------| 
|----------------------------12s14-14-12s14----14-12s14-(14)----| 
|-10s12-12-10s12-12-12s10-10----------------10------------------| 
|----------------------------10s12-12-10s12----12-10s12-(12)----| 
 
 
              |--3--|  |--3--|  |--3--|  |---3----| 
  Q  S  a  S  S  S  S  S  S  S  S  S  S  E  e  S  S 
|------14s15-15-15-15-15-15-15-15-15-15-12----------| 
|---------------------------------------12----14----| 
|------11s12-12-12-12-12-12-12-12-12-12-12-14-14----| 
|------------------------------------------------14-| 
|---------------------------------------------------| 
|---------------------------------------------------| 
 
 
   |--3--|  |--3--|  |---3----|  |--3--|                 |--3--| 
   S  S  S  S  S  S  S  a  S  S  S  S  S  E  s  S  S  S  S  S  S 
|-------17----------22-------------------------------------------| 
|-12----------------------------------12----15-15s17-17----------| 
|-12-14-14-14s12----19-14h15-14s12----12-------------------------| 
|----------------14----------------14----14-12-12s14-14----14----| 
|----------------------------------------------------------------| 
|-------------------------------------------------------12----12-| 
 
 
            ~~                               ~~ 
   |--3--|     |--------7--------|  |--3--| 
   S  S  S  E  S  S  S  S  S  S  S  S  S  S  E  S  T  T  S  T  T 
|-----------------------------------------------------------------| 
|-----------------------------------------------------------------| 
|-------12-------------------------------------12-----------------| 
|-14-------14-14p12----------------------12-14----14p12h14-12-----| 
|-------------------14-13-12h13p12----------------------------14--| 
|----12----------------------------15-12--------------------------| 
 
 
                   |------7-------|             |--3---| 
   S  S S S E.  S  T  T  T  T  T  S  S  S      +S   S  S  T  T      +T    T 
|-----------------12-12-12----------15--------------------------------------| 
|------------------------------x-12-15-----------------------------------12-| 
|-----------------12-14-14h15-14-12----14pb16r(14)-12----12s14b16==(14)r----| 
|--------------14-------------------------------------14--------------------| 
|-----xpxhx-----------------------------------------------------------------| 
|-12/-----------------------------------------------------------------------| 
 
 
                     ~~~                ~~             ~~ 
   |--3--|                           |3-|  |--3--|  |3-| 
   T  T  T  T  T  T  S.  T  T  T  T  E  S  S  S  S  S  E  S  S  a  S  S 
|-12------------------------------------x---------------------------------| 
|----15-12------------------------------x---------------------------------| 
|----------14s16-12h14--12h14p12----12-12-----------------------------x---| 
|--------------------------------14-------14p12----------------------12---| 
|-----------------------------------------------14-13-12-10-12-12s14------| 
|-------------------------------------------------------------------------| 
 
 
   S      +S    S  S  a      +S    S    S  S  S.     +T    S    S    a       S   S   s S 
|--------------15-15--------------15----------------------13---13-----------13\----------| 
|--------------15-15--------------15---15-----------------13---13-----------13\----------| 
|-14b16==(14)r-------14b16==(14)-(14)r(14)-0-12b14==(12)-(12)-(12)r-12b14==(12)r---/17---| 
|------------------------------------------0-------------------------------------------0-| 
|------------------------------------------0-------------------------------------0-----0-| 
|----------------------------------------------------------------------------------------| 
 
 
 2/4 
        |-3-| 
   S  S T T T  S S  S S  S 
|--------------------------| 
|-----8-8--------8----8----| 
|--9--9-7h9p7--9-7----7--9-| 
|-10----------10---10---10-| 
|-(0)----------------------| 
|--------------------------| 
 
 
 4/4 
   |3-|              |--3--|           |--3--| 
   S  E  S  S  S  S  T  T  T  S  S  S  T  T  T  S  a  S  S  S S 
|-------------10----10----------10----10-------------10-10------| 
|-------------10-10-10-------10-10-10-10-------10----10-10-10-0-| 
|-------------11-12-11h12p11-11-11-12-11h12p11-11-11h12-11-11-0-| 
|-10s12-12-12-12-------------12-12-------------12----------12---| 
|---------------------------------------------------------------| 
|--8s10-10-10---------------------------------------------------| 
 
 
                              \0.5___/ 
  S   S    +E     +E.    +S   E     +E  +E. S 
|---<12>-(<12>)-(<12>)-(<12>)-0-----(0)-(0)----|| 
|---<12>-(<12>)-(<12>)-(<12>)-0-----(0)-(0)-0--|| 
|---<12>-(<12>)-(<12>)-(<12>)-0-----(0)-(0)-0--|| 
|-0-<12>-(<12>)-(<12>)-(<12>)-0-----(0)-(0)----|| 
|-0---------------------------0-----(0)-(0)----|| 
|-0---------------------------0-----(0)-(0)----|| 
 
 
                                                              |---3---|          |---3---| 
   a      +E   +E    E.  S  a      +E    a      +E    a      +S    S  S  a      +S    S  S 
|---------------------------------------------------------------------------------------12-| 
|-15b17==(15)-(15)-(15)r-0-15b17==(15)r-15b17==(15)r-15b17==(15)r-15-12--------------12----| 
|------------------(15)--0----------------------------------------------14b16==(14)r-------| 
|------------------------0-----------------------------------------------------------------| 
|------------------------------------------------------------------------------------------| 
|------------------------------------------------------------------------------------------| 
 
 
                                       ~~~~~                            ~~ 
                                            |------3------|    |--3--|          |--3--| 
   a      +T   +T   T  T  a      +E   +E    S  S  a       S    S  S  S  S   S   E  E  E 
|------------------------------------------12---------------------------x---x------------| 
|---------------------------------------------15---------15-------------x---x------------| 
|-14b16==(14)r(14)p12----14b16==(14)-(14)r-------14b16==(14)r-14p12----12-(12)-----------| 
|---------------------14--------------------------------------------14---------14\-------| 
|----------------------------------------------------------------------------------------| 
|----------------------------------------------------------------------------------0S12--| 
 
 
                         ~~~                                                ~~~~~~~ 
   |------3------|                       |--3--|          |----3-----|   |------3------| 
   S  S  a      +S    T  S.  T  T  T  T  S  S  S  a      +E   E  S  +S   E  E       S  S 
|------------------------------------------------------------15--------------------------| 
|---------------------------------------------15-------------15--------------------------| 
|-12-14-14b16==(14)r-12h14--12h14p12----12-14----14b16==(14)-14r14-(14)-12-14b14.5-------| 
|------------------------------------14--------------------------------------------14-12-| 
|----------------------------------------------------------------------------------------| 
|----------------------------------------------------------------------------------------| 
 
 
         ~~                                     ~~~~~ 
   |--3--|        |--3--|              |--3--|          |-3--| 
   S  S  S  E  a  S  S  S  T  T  T  T  S  S  S  S  S  E S  S S 
|----------------------------------------------------12S0------| 
|-------12-------------------------------------------12S0------| 
|-------12-------------------------------------------12S0------| 
|-14-------14-12h14p12----------------------12-14-14------14-0-| 
|----------------------14-13-12h13p12------------------------0-| 
|----12-------------------------------15-12--------------------| 
 
 
                   ~~~~~~~                    ~~~ 
   a      +S    S  E  +S  S   a        +E     T  S.  +S  S  E      +S    S 
|--------------------------------------------------------------------------| 
|--------------------------------------------------------0--------------12-| 
|---------------------------{14}b16==({14})r-14s12--(12)-0-14b16==(14)r----| 
|-14b16==(14)r-12-14-(14)--------------------------------0-----------------| 
|---------------x---------0------------------------------------------------| 
|-------------------------0------------------------------------------------| 
 
 
                                         ~~~~~~~~~ 
            |--3--|                                          |---3----| 
   a  S  S  S  a  E  a  S  S  S  a      +S   +E.  S  a      +S   +S   S  a      +S    S 
|------------------------------------------------------------------------------------15---| 
|-12h13-12h13-12h13-12h13-12----15b17==(15)-(15)r---15b17==(15)r(15)p12--------------15---| 
|----------------------------12-------------------0---------------------14b16==(14)r------| 
|-------------------------------------------------0---------------------------------------| 
|-----------------------------------------------------------------------------------------| 
|-----------------------------------------------------------------------------------------| 
 
 
   a      +E    S  S  a      +S    S    S  S  S      +S    S    T   +T    a        S    S   S S 
|--------------15-15--------------15---15-----------------13---13-----------------13\-----------| 
|--------------15-15--------------15---15-----------------13---13-----------------13\-----------| 
|-14b16==(14)r-------14b16==(14)-(14)r(14)-0-12b14==(12)-(12)-(12)r(12)-(12)b14==(12)r\---/14---| 
|------------------------------------------0--------------------------------------------0-------| 
|---------------------------------------------------------------------------------------0-----0-| 
|---------------------------------------------------------------------------------------------0-| 
 
 
 2/4 
      |-3-| 
  S S T T T  S S  S S  S 
|------------------------| 
|-8-8-8--------8----8----| 
|-7-9-7h9p7----7----7----| 
|-----------10---10---10-| 
|------------------------| 
|------------------------| 
 
 
 4/4 
   |3-|              |--3--|           |--3--| 
   S  E  S  S  S  S  T  T  T  S  S  S  T  T  T  S  a  S  S  S S 
|-------------10----10----------10----10-------------10-10------| 
|-------------10-10-10-------10-10-10-10-------10----10-10-10-0-| 
|-------------11-12-11h12p11-11-11-12-11h12p11-11-11h12-11-11-0-| 
|-10s12-12-12-12-------------12-12-------------12----------12---| 
|---------------------------------------------------------------| 
|--8s12-10-10---------------------------------------------------| 
 
 
                    \1_____/ 
  S   S    +Q.      Q     +E   +S  S 
|------------------------------------|| 
|---<12>-(<12>)-----0-----(0)--(0)---|| 
|---<12>-(<12>)---(12)---(12)-(12)-0-|| 
|-0-<12>-(<12>)---(12)---(12)-(12)-0-|| 
|-0----------------------------------|| 
|------------------------------------|| 
 
 
           ~~~~ 
   a      +Q     E.    S  a      +E    a   +E   a      +E    T  S. 
|------------------------------------------------------------------| 
|-15b17==(15)--(15)r---0-15b17==(15)-(15)r(15)--------------12h15--| 
|---------------15pb16-0-----------------------14b16==(14)r--------| 
|----------------------0-------------------------------------------| 
|------------------------------------------------------------------| 
|------------------------------------------------------------------| 
 
 
                        TP           TP           TP           TP             TP 
               |--3--| 
   S      +S   S  S  S  Q    a       E    a       E    a       E      a       E 
|-------------15----15-15-----------15-----------15-----------15-------------15---| 
|-------------15-15-15-15-----------15-----------15-----------15-------------15---| 
|-14b16==(14)----14-14-14r--14b16==(14)r-14b16==(14)r-14b16==(14)b16-14b16==(14)r-| 
|---------------------------------------------------------------------------------| 
|---------------------------------------------------------------------------------| 
|---------------------------------------------------------------------------------| 
 
 
                  ~~ 
   |-----3-----|                    |----3-----|    |--3--|  |----3-----|    |----------3----------|  |--3--| 
   S      +S   S  S  S  T  T  T  T  S  a       E    S  S  S  S  S      +S   +T    a      +T   +S   S  S  S  S 
|-------------------15----------------------------------------------------------------------------------------| 
|-15-----(15)-15-15-15-15----------15---------15---15-15------------------------------------------------------| 
|-14pb16r(14)-12-14-14-12h14p12----12-14b16==(14)r-14-12----12-16b18==(16)-(16)r-14b16==(14)r(14)p12----------| 
|-------------------------------14-----------------------14------------------------------------------14-12-14-| 
|-------------------------------------------------------------------------------------------------------------| 
|-------------------------------------------------------------------------------------------------------------| 
 
 
   ~~ 
                |-3-|       |--3--|   |--3--| |-3-| |-3-| 
   S  S  S  S E S S S a    +S   S S a T T S S S S S S S S 
|-----x-------0-0---0-------------0-------------------0---| 
|-----x-----0---0-3-0-----------0-------------------3---3-| 
|-12-12---------------2b4==(2)r-----2h3p2-0---0-2s4-----4-| 
|-------14\---------------------------------2-------------| 
|---------------------------------------------------------| 
|-------------0-------------------------------------------| 
 
 
       ~~~ 
       |-3--|                     |-----7-----| |------5------|   |-----6-----| |-3-| 
  a E +S  S S a    +S   T T +S  S T T T T T T T T T T T a    +T  +T   T T T T T T T T T T 
|---------3---5b6==(5)r-3-5-(5)-3-------0-------------------------------0-----------------| 
|-3s5-(5)---5---------------------5p3p0---3p0-------------------------0---3p0-------------| 
|---------------------------------------------3p2p0---0-2b4==(2)-(2)r---------3p2p0---2h4-| 
|---------------------------------------------------2-------------------------------2-----| 
|-----------------------------------------------------------------------------------------| 
|-----------------------------------------------------------------------------------------| 
 
 
  |-------6-------|   |-3-|     |---3---| |--3--|           |--3--| 
  T T T T T a    +T   T T T T T S a S T T S S T T T T a T T S T T S S S T T S 
|-----------------------------------------------------------------------------| 
|-3---------------------------------------------------------------------------| 
|-4-4p2p0---2b3==(2)r-2p0---2p0-----------------------------------------------| 
|---------2---------------2-----2-0h2-0-------------------0-------------------| 
|---------------------------------------2-1-0h1p0-----1h2---0h1h0---0---0h2p0-| 
|-------------------------------------------------3p0-------------3---3-------| 
 
 
  a    +E  S S  S    S S  S  S      +S    S  S  S      S   S S 
|----------3-3-------3-3-----------------13-13-13\-------------| 
|----------3-3--3----3-3-----------------13-13-13\-------------| 
|-2b4==(2)---2r-2pb4---2S12-12b14==(12)r-------12pb14\---/17---| 
|------------------------------------------------------0-----0-| 
|------------------------------------------------------0-----0-| 
|--------------------------------------------------------------| 
 
 
 2/4 
  S    +S   S S a     S   S S S 
|-----------8-8-----------8-8----| 
|-----------8-8-------8---8-8----| 
|-7b9==(7)r-----7b9==(7)r---7-9--| 
|--------------------------------| 
|--------------------------------| 
|--------------------------------| 
 
 
 4/4 
                                  |-3-| 
  S     +S    S  S  S      S  S S S S S S S  S S S S 
|------------10-10--------10-10-------7--------------| 
|------------10-10-10-----10-10-------7---7----7-----| 
|-9b11==(9)r--------9pb11-----9-7-7---7-7-7--7-7---7-| 
|---------------------------------7h9---7----7---7-7-| 
|-------------------------------------------10---7---| 
|----------------------------------------------------| 
 
 
             \1   / 
  s S   Q.   Q   +E  +S  S 
|--------------------------|| 
|-----<12>-----------------|| 
|-7-0-<12>---0---(0)-(0)-x-|| 
|-7-0-<12>---0---(0)-(0)-x-|| 
|-9---<12>---0---(0)-(0)-x-|| 
|------------0---(0)-(0)---|| 
 
 
   W               +H      +Q    +E.  S 
|---------------|-----------------------| 
|---------------|-----------------------| 
|---------------|--------------------12-| 
|-12tr14--------|-(12)----(12)--(12)-12-| 
|---------------|-----------------------| 
|---------------|-----------------------| 
 
 
         ~~~~~~~~~~~~ 
   |--3--| 
   S  S  S  +E   +Q   S a a a  S  S  S  S  S  S  S 
|--------------------------------------------------| 
|--------------------------------------------------| 
|-----------------------x--------------------------| 
|-------------------------x---------------12-14----| 
|-14-13-12-(12)-(12)--------x----10-12s14----------| 
|-----------------------------12----------------12-| 
 
 
                                       |--3---|  |--3--|  |--3--| 
   a      +S    S  E  +E   S  S  +E   +S   S  S  S  S  S  S  S  S 
|-----------------------------------------------------------------| 
|-----------------------------------------------------------------| 
|-14b16==(14)r-14-12-(12)-14--------------------------------------| 
|----------------------------14-(14)-(14)-12----------------------| 
|--------------------------------------------14-13-12----12-13-14-| 
|-----------------------------------------------------15----------| 
 
 
             |------3------|       |----3-----| 
   H         E      E      E      +E   E      E 
|---------------------------------------------------| 
|---------------------------------------------------| 
|---------------------------------------------------| 
|-----------12tr14--------12tr14-(12)--------12tr14-| 
|-12tr14-----------12tr14-------------12tr14--------| 
|---------------------------------------------------| 
 
 
             |------3------|      |------3------| 
   H         E      E      E      E      E      E 
|-----------------------------------------------------| 
|-----------------------------------------------------| 
|-----------------------------------------------------| 
|---------------------------------------12tr14-12tr14-| 
|-10tr12----10tr12--------10tr12-12tr14---------------| 
|------------------10tr12-----------------------------| 
 
 
   ~~ 
            |--3--|     |-----3-----|  |---3----| 
   Q   S S  S  S  S  a  S  S  E  S  S  S  a  S  S  T  T S 
|----------------------12----12-------12------------------| 
|---------------------------------------------------------| 
|-12----------12----14h15-12-14-12-------14h15-14-12------| 
|-----14s9s14----14----------------14----------------14---| 
|---------------------------------------------------------| 
|---------------------------------------------------------| 
 
 
 2/4 
                          |------6-------|  |------6-------| 
  E T  a      +T    T  T  T  T  T  T  T  T  T  T  T  T  T  T 
|---------------------12---------------------------------------| 
|------------------12----15p12-------------15------------------| 
|-----14b16==(14)r-------------15p14p12-------15p14p12----12h==| 
|---------------------------------------14-------------14------| 
|--------------------------------------------------------------| 
|--------------------------------------------------------------| 
 
 
 4/4 
   |--------6--------|     |--3--|        |--3--|  |--3--|                     |--3--|                |--3--| 
   T  T  T  a  T  T  T  a  T  T  T  S  S  T  T  T  T  T  T  S a a  T  T  T  T  T  T  T  S  a  S   S   T  T  T  S 
|-------------------------------------------------------------x--------------------------------------------------| 
|-------15------------------------------------------------------x------------------------------------------------| 
|-14h16----16p14p12----15s16s14----14-12-------------------14-----12----------------------------<12>-------------| 
|-------------------14----------14-------14p12-------12--------------14p12----------------------<12>-------------| 
|----------------------------------------------13h14----14-----------------14-12h13p12-10-12s14------12h13p12----| 
|-------------------------------------------------------------------------------------------------------------15-| 
 
 
             \1_______/ 
   s   S    +Q.      +Q.      +E 
|----------------------------------|| 
|----<12>-(<12>)---(<12>)---(<12>)-|| 
|----<12>-(<12>)---(<12>)---(<12>)-|| 
|----<12>-(<12>)---(<12>)---(<12>)-|| 
|-12-<12>-(<12>)---(<12>)---(<12>)-|| 
|----------------------------------|| 
 
 
                                       |--3--| 
   Q       E.  S  S  S  a  S  S  S  S  S  S  S 
|----------------------------------------------| 
|----------------------------------------------| 
|----------------12-14-12s14-14-12-14-12----12-| 
|-14tr12p=12--14-------------------------14----| 
|----------------10-12-10s12-12-10-12-10----10-| 
|-------------12-------------------------12----| 
 
 
   |--3--|  |---3---|  |--3--|  |---3---|      |--3--|   |--3---| |--3--|  |--3--| 
   S  S  S  S   S   S  S  S  S  S   S   S  a   S  S  S   S   S  S S  S  S  S  S  S 
|----------------------------------------------------------------------------------| 
|---------------------------------(14)-----------------(14)------------------------| 
|-14----12-----14-----12----14-----12-----14/-15s14-12--14-----12---14----12s14----| 
|----14----14-(12)-14----14-12-14------14-------------------14---------14-------14-| 
|-12----10-----12-----10----12-----12-----12/-13s12-10--12-----10---12----10s12----| 
|----12----12------12----12----12------12-------------------12---------12-------12-| 
 
 
   |--3--|  |--3--| |--3--|  |--3--|  |--3--|  |--3--|  |--3--|  |--3--| 
   S  S  S  S  S  S S  S  S  S  S  S  S  S  S  S  S  S  S  S  S  S  S  S 
|------------------------------------------------------------------------| 
|------------------------------------------------------------------------| 
|-12----14-14---------12----14-14-------14-12----14----12s14----12s14-15-| 
|----14-------14-14---10-14-12-12-14-14-------14-12-14-------14----------| 
|-10----12-12---------10----12-12----------10----12----10s12----10s12-13-| 
|----12-------12-12------12-------12-12-------12----12-------12----------| 
 
 
                                                ~~          ~~~~~~~ 
   |--3--|  |--3--|        |--3--|  |--3--| 
   S  S  S  S  S  S  S  S  S  S  S  S  S  S  a  E  T  T  T  T  +E 
|------------------------------------------------------------------| 
|----------------12-------12----14-12-------------12---------------| 
|-14s13----14----12-------12----14-12-------------12---------------| 
|-------14----14----14-14-------14----------12s14------------------| 
|-12s11----12----------------------------------------14p13p12-(12)-| 
|-------12----12-------------12-------12-12------------------------| 
 
 
        ~~~~~~~~          ~~~~~ 
  E  T  S.  +Q    +S   T  T  E  +E   E 
|------------------------15---------17b19==| 
|---15s17--(17)--(17)-17-15-15-(15)--------| 
|------------------------------------------| 
|------------------------------------------| 
|------------------------------------------| 
|------------------------------------------| 
 
 
    |---------3----------|                  |-----5-----|  |-----5-----|           |--3--| 
   +E    a      +E    S  S  S.  T  S  T  T  T  T  T  T  T  T  T  T  T  T  T  S  T  S  S  S 
|-(17)r-15b17==(15)r-15--------15----17s18-17p15----17----------------------19-17-19-15----| 
|-----------------------17-17-----17-------------17----15-17-15-------17-18-------------17-| 
|---------------------------------------------------------------16s18----------------------| 
|------------------------------------------------------------------------------------------| 
|------------------------------------------------------------------------------------------| 
|------------------------------------------------------------------------------------------| 
 
 
 9/8 
      |--3--|  |--------6--------|  |----------6----------|  |-----6-----|                                                                   |------6-------| 
   a  S  S  S  S  T      +T   T  T  T  T      +T    T  T  T  T  T  T  T  S  S  T      +T   T  T  X  X      +X   X  T  +T   T  X  X  s  T  T  T  T  T  T  T  T 
|-----------------------------------------------------12--------------------------------------------------------------------------------------------------------| 
|-------------15-----------------------------------12----15p12-------------15----------------------------------15-----------------------------------------------| 
|-16s14-12-------14pb15r(14)p12----12-14b16==(14)r-------------15p14p12-------14pb16r(14)p12----12h14b16==(14)----14r(14)p12----12--------------x---------------| 
|----------14-------------------14--------------------------------------14-------------------14------------------------------14----14----------12---------------| 
|-------------------------------------------------------------------------------------------------------------------------------------10h12s14----14p12p10------| 
|----------------------------------------------------------------------------------------------------------------------------------------------------------12---| 
 
 
 2/4 
                        ~~~ 
   |------6-------|                     |--3--| 
   S  a  T  T  T  T  T  S.  T  T  T  T  S  S  S 
|-----------------------------------------------| 
|-----------------------------------------------| 
|-----------------------------------------------| 
|-----------------------------------------------| 
|-10-12s14s12p10----10h12--10h12p10----10-12s14-| 
|----------------12-----------------12----------| 
 
 
 4/4 
            ~~                                                     ~~~~~~~ 
   |--3--|          |--3--|  |--3--|  |----3-----|        |--3--| 
   S  S  S  S   S   S  S  S  S  S  S  S  S       S  S  S  S  S  S  S       S 
|---------------x-------------------------------------------------------------| 
|---------------x-------------------------------------12----------------------| 
|----------12-(12)----------------------14b14.5-12-14-12----------------------| 
|-12-14-14---------14p12----12h14-14---------------------14p12----12b12.5-14--| 
|------------------------14------------------------------------14-------------| 
|-------12------------------------12-12---------------------------------------| 
 
 
              \1______________/ 
  S  S  +Q    E    +E   +E   +S   +E   S 
|----------------------------------------|| 
|---12-(12)--12---(12)-(12)-(12)-(12)----|| 
|---12-(12)--12---(12)-(12)-(12)-(12)-!0-|| 
|---12-(12)--12---(12)-(12)-(12)-(12)-!0-|| 
|---12-(12)--12---(12)-(12)-(12)-(12)-!0-|| 
|-0-12-(12)--12---(12)-(12)-(12)-(12)-!0-|| 
 
 
           ~~~~ 
                     |------3------|    |--3--|                        |--3---| 
   a      +Q    +E   S  S  a       S    S  S  S  a  E  S  a      +S   +S   S  S 
|-------------------------------------------------------------------------------| 
|-15b17==(15)--(15)r---15---------15---14-------------12-14b15==(14)r(14)p12----| 
|--------------------x----14b16==(14)r-15p12-----x----12-14b15==(14)r(14)p12----| 
|--------------------------------------------14-12s14------------------------14-| 
|-------------------------------------------------------------------------------| 
|-------------------------------------------------------------------------------| 
 
 
   |----3-----|         |--3--|        |------3------|                |------3------| 
   S  a      +E   S  S  S  S  S  S  S  S  S  a       S    S  S  S  S  S  S  a       S 
|----------------15-15-15----15----15----15--------------15-------------15--------------| 
|-12-------------15-15-15----15-15-15-15-15---------15---15-15-15-15-15-15---------15---| 
|-12-14b16==(14)----14-14r14-12-------12-14-14b16==(14)r-14-12-------12-14-14b16==(14)r-| 
|-------------------------------14-14--------------------------14-14--------------------| 
|---------------------------------------------------------------------------------------| 
|---------------------------------------------------------------------------------------| 
 
 
      ~~ 
         |--3---|  |---3----|                 |--3--| 
   a  E  T  S.  S  T  T  S  S  S  S  a  S  S  S  S  S  S  S  S  S 
|-----------------------------------------------------------------| 
|---------------------------------x--------x----------------------| 
|-12s14-12h14--12-12h14-12-------12----12-12--------x-----x-------| 
|--------------------------14-14p12-12h14-14-------12--x--x-------| 
|--------------------------------------------12h14-14-12-12-------| 
|-----------------------------------------------------------15-15-| 
 
 
                         |--3--| |-----3-----|  |-3-| |--3--| |-3-| 
   a  S  S S S S S a    +S   S S S a    +S  +S  S S S T T S S S S S 
|------------0-0-0-------------0------------------------------------| 
|----------0-0-0-0-----------0-0-3------------------2-0-------------| 
|----------0-----0-2b4==(2)r-------2b4==(2)r(2)p0---2-0h2p0---------| 
|-12s14\------------------------------------------2---------2-------| 
|--------2----------------------------------------2-----------5s7-7-| 
|--------0----------------------------------------------------------| 
 
 
                                                   ~ 
              |-3-|         |-----3-----|    |-3-|     |-3-| 
  a E S S S S T T T  S      S  S a      S    S S S S S T T T S 
|---------7-9-7h9p7---------7----------------------------------| 
|---------7---7-----10b10.5-7-10-------10---10-7-----7---------| 
|--------------------------------9b11==(9)r--9-7---7-7---------| 
|------------------------------------------------9---7-7h9p7---| 
|------------------------------------------------------------9-| 
|-5s7-7-7----------------------------------------------------x-| 
 
 
          |-3-|       |--3--| |-3-| 
  S S S S S S S a    +S   S S S S S a    S     +S  +S   S a S S 
|---------5-5-5-------------5-8-5-5---------------------0--------| 
|---------5-5-5-----------5-5-8-5-5-8b9==8b10==(8)-(8)r-0-----0--| 
|---------------7b9==(7)r-------------------------------0-1s2-0--| 
|-----7-7-----------------------------------------------------0--| 
|-7-0-0-0--------------------------------------------------------| 
|-5--------------------------------------------------------------| 
 
 
  S    +S  S S  a     S  S a  S   S  S      +S   S  S   a       S    S   S  S 
|----------3-------------3----------------------13-13----------13\---0------0-| 
|----------3-3--------3--3----3-----------------13-13----------13\---0------0-| 
|-2b4==(2)---2r-2b4==(2)---2r(2)S12-12b14==(12)----12r-12b14==(12)r\---/17\-0-| 
|---------------------------------0-------------------------------------------| 
|-----------------------------------------------------------------------------| 
|-----------------------------------------------------------------------------| 
 
 
 2/4 
  S    +S   S   S   a     S  S a  S  S 
|-----------8---8------------8----8----| 
|-----------8---8---------8--8----8----| 
|-7b9==(7)-(7)-(7)r-7b9==(7)---7r(7)---| 
|--------------------------------------| 
|------------------------------------0-| 
|------------------------------------0-| 
 
 
 4/4 
  S     +S   S  S  a      S   S a  S  S a S S S S  S  S S S 
|-----------10-10------------10---10------------------------| 
|-----------10-10--------10--10---10--------7---7-----------| 
|-9b11==(9)-----9r-9b11==(9)----9r(9)-----7-7-7-7--7--7---7-| 
|---------------------------------------7h9---7-7--7--7-7-7-| 
|-------------------------------------0-----------10-10-7-7-| 
|-------------------------------------0---------------------| 
 
 
                   \0.5___/ 
  a S   E.   +Q    E     +E  +E. S 
|------------------0-----(0)-(0)---|| 
|-----<12>-(<12>)--0-----(0)-(0)-0-|| 
|---7-<12>-(<12>)--0-----(0)-(0)-0-|| 
|---7-<12>-(<12>)--0-----(0)-(0)-0-|| 
|-7h9-<12>-(<12>)--0-----(0)-(0)---|| 
|------------------0-----(0)-(0)---|| 
 
 
                ~~~~~~~~~ 
   a      +E    E   +E.  S  a      +E    a      +E    a      +E   +S   S 
|------------------------------------------------------------------------| 
|-15b17==(15)-(15)-(15)r---15b17==(15)r-15b17==(15)r-15b17==(15)r(15)p12-| 
|------------------------0-----------------------------------------------| 
|--------------14--(14)--0-----------------------------------------------| 
|------------------------------------------------------------------------| 
|------------------------------------------------------------------------| 
 
 
                 |--3---|                     |-------3------| 
   S  E      S  +S   S  S  a     +E    a      E    E  a     +E    T  T  T  T  T  T  a     +T    T 
|---------------------------------------------x---------------------------------------------------| 
|-15-15pb17=15r(15)-12-15-12b14=(12)r-12b14=(12)r-12----------------------------------------------| 
|--------------------------------------------------x-14b16=(14)r-14p12h14p12----12-14b16=(14)rp12-| 
|----------------------------------------------------------------------------14-------------------| 
|-------------------------------------------------------------------------------------------------| 
|-------------------------------------------------------------------------------------------------| 
 
 
   ~~~   ~~~ 
         |3-|                         |--3--|     |------3------| 
   E. S  S  E  +S  S  a      +S    S  T  T  T  S  E  E       S  S 
|-----------------------------------------------------------------| 
|----------------------------------x--x--------------x------------| 
|-14----14s16-(16)---16b17==(16)r-16-14h16p14s12-14-12b12.5-14-12-| 
|-----0------------0----------------------------------------------| 
|-----0------------0----------------------------------------------| 
|-----------------------------------------------------------------| 
 
 
   |----3-----|                  |--3--|             |----3-----|  |-----6-----| 
   S  a      +E    S  S  S   S   T  T  T  S  S   S   S       S  S  T  T  T  T  S  S  S 
|------------------------------------------------x------------------------------------------| 
|-15---------------x---------x-------------------x-------------------------------12-14b14.5-| 
|----12b14==(12)r-12-12------x-------------------x-------------------------------12-14b14.5-| 
|-----------------------14-(14)-12h14p12--x--------------------12-14-12-14-12-14------------| 
|----------------------------------------14-12-(12)-----------------------------------------| 
|---------------------------------------------------15b15.5-12------------------------------| 
 
 
      ~~~                       ~~~ 
                                            |--3--|  |----3----| 
   T  S.  +S  S  E      +S   S  E.   S   a  S  S  S  S  a      E 
|-----------------------------------------------------------------| 
|-12h14--(14)-0---------------------------------------------------| 
|-12h14--(14)-0-14b16==(14)r---12--(12)-12h14p12----12-14b16==14r-| 
|-------------0--------------x-------------------14---------------| 
|----------------------------x-------0----------------------------| 
|-----------------------------------------------------------------| 
 
 
                                     |------3------| 
   S  S  a  S  S  a  S  S  S  S      E   E   a  S  S  S  S  S  S 
|----12--------x--------x---------------15-----------------------| 
|-12----12h13-12-12h13-12--------------------------------x-----0-| 
|-------------------------12-14b16==14-(14)-14r14-12-14-12-----0-| 
|----------------------------------------------------------14-12-| 
|----------------------------------------------------------------| 
|----------------------------------------------------------------| 
 
 
   S     +S    a      S    S    a      S    S   +S  S  S     +S    S   S   a      S    S   S  S 
|--------------------15---15---------------15---------------------13--13---------------0--------| 
|--------------------15---15----------15---15---------------------13--13---------13\---0--------| 
|-14b16=(14)r-14b16=(14)-(14)r-14b16=(14)-(14)r(14)-0-12b14=(12)-(12)-12r-12b14=(12)r\-0-/17\-0-| 
|---------------------------------------------------0-----------------------------------------0-| 
|---------------------------------------------------0-------------------------------------------| 
|-----------------------------------------------------------------------------------------------| 
 
 
 2/4 
  S    +S   S S a     S   S   S  S 
|-----------8-8-----------8---8----| 
|-----------8-8-------8---8---8----| 
|-7b9==(7)r-----7b9==(7)-(7)r(7)---| 
|--------------------------------0-| 
|--------------------------------0-| 
|----------------------------------| 
 
 
 4/4 
  S     +S   S  S  a      S   S   S  S a S S S S  S  S S S 
|-----------10-10------------10--10------------------------| 
|-----------10-10--------10--10--10--------7---7-----------| 
|-9b11==(9)-----9r-9b11==(9)-(9)r(9)-----7-7-7-7--7--7---7-| 
|--------------------------------------7h9---7-7--7--7-7-7-| 
|------------------------------------0-----------10-10-7-7-| 
|------------------------------------0---------------------| 
 
 
                  \2.5_____/ 
  a S  S  +Q.    +Q       +E   +S. T 
|-----12-(12)---(12)-----(12)-(12)---|| 
|-----12-(12)---(12)-----(12)-(12)---|| 
|---7-12-(12)---(12)-----(12)-(12)---|| 
|---7-12-(12)---(12)-----(12)-(12)---|| 
|-7h9-12-(12)---(12)-----(12)-(12)-0-|| 
|-----12-(12)---(12)-----(12)-(12)-0-|| 
 
 
 Frre Time 
   H          H            H         E      Q       E        Q       +H. 
|-----------------------:---------------------------------:-----------------*| 
|-----------------------:---------------------------------:-----------------*| 
|------------12---------:--x---------x--------------x-----:-----------------*| 
|-12tr14----(12tr14)----:--x--------12tr14--x------12tr14-:-12tr14--(12)----*| 
|-----------------------:-12tr14-----------12tr14---------:-----------------*| 
|-----------------------:---------------------------------:-----------------*| 

		  

Full key step upFull key step up
Half key step upHalf key step up
Half key step downHalf key step down
Full key step downFull key step down
hide glossary

See also:

tabs Stevie Ray Vaughn and Double Trouble - Riviera Paradise tabs Beyoncé - Speechless tabs Blind Boy Fuller - Piccolo Rag tabs Wilson Pickett - Land Of 1000 Dances tabs Mississipi John Hurt - Nobody cares for me tabs Blind Blake - Diddie wa diddie
e-chords

Other versions:

tabs Stevie Ray Vaughn and Double Trouble - Little Wing tabs Jimi Hendrix Experience - Little Wing tabs Skid Row - Little Wing tabs The Corrs - Little Wing tabs Stevie Ray Vaughan - Little Wing tabs Jimi Hendrix Experience - Little Wing (ver. 2)
auto scroll beats size up size down change color hide chords drawings
tab show chords e-chords YouTube Clip e-chords hide all tabs e-chords go to top tab

share