Mississipi John Hurt

Nobody cares for me

Mississipi John Hurt

tabs

by  ROWANE

save to print version add songbook text version e-mail correct tuner
chordsukulelecavacokeyboardtabbassdrumsharmonicaflute Guitar Pro
close

there isn't a video lesson for this song

chords

Nobody cares for me

	  		NOBODY CARES FOR ME: Mississippi John Hurt 
 
   D                             G7             D 
 
e|-/2------/2---|------2---2---|--------------|--------------|--------------| 
b|-/3-----3-3---|--3-----3-----|--0---3---0---|--------------|-/3-----3-----| 
g|-/2-----------|--2-----------|--------------|--2-----------|-/2-------2---| 
d|------0---0---|------0---0---|------0---0---|------0---0---|------0---0---| 
a|--0-----------|--0-----------|--2-----------|--0-----------|--0-----------| 
e|--------------|--------------|--------------|--------------|--------------| 
 
 
 
    D              A                             D 
 
e|--------------|------5---5---|--3---5---3---|-/2------/2---|------2---2---| 
b|-/3-----3-----|----2---2---2-|--------------|-/3-----3-3---|--3-----3-----| 
g|-/2-------2---|--2-----------|--------------|-/2-----------|--2-----------| 
d|------0---0---|------2---2---|------2---2---|------0---0---|------0---0---| 
a|--0-----------|--0-----------|--0-----------|--0-----------|--0-----------| 
e|--------------|--------------|--------------|--------------|--------------| 
 
 
 
    G              D                             G7  A          D 
 
e|--------------|--------------|--------------|------5-------|------2-------| 
b|--0---3---0---|--3-----------|-/3-----3-----|--------------|------3-------| 
g|--------------|--2-----------|-/2-------2---|--4-----------|------2-------| 
d|------0---0---|------0---0---|------0---0---|------0-------|--0-----------| 
a|--2-----------|--0-----------|--0-----------|----------3-4-|------------0-| 
e|--------------|--------------|--------------|--3-----------|----------2---| 
 
 
 
e|------2---2---|| 
b|------3---3---|| 
g|------2---2--.|| 
d|--0----------.|| 
a|--------------|| 
e|--------------|| 
 
(Call)                                             (Answer) 
Lonesome is I, Wished I could die                 Nobody cares for me 
Lonesome is I, Wished I could die                 Nobody cares for me 
It was a bright moon lighted night,  
the moon shining bright                           When you and I made love 
Your love wasn?t true I'll say onto you           I moaned like a turtledove 
Lonesome is I, Wished I could die                 Nobody cares for me 
Lonesome is I, Wished I could die                 Nobody cares for me 
I'm coming home, no more to roam                  darling I'm coming home 
I'm coming home, no more to roam                  darling I'm coming home 
Lonesome is I, Wished I could die                 Nobody cares for me 
Lonesome is I, Wished I could die                 Nobody cares for me 
It was a bright moon lighted night,  
the moon shining bright                           When you and I made love  
Your love wasn't true, I'll say onto you          I moaned like a turtledove 
 
 
 
(Instrumental) 
 
    D                             G7             D 
 
e|------5---7-5-|--------------|--------------|--------------|--------------| 
b|-/7-----------|--------------|--0---3---0---|--------------|-/3-----3-----| 
g|--------------|--7-----------|--------------|--2-----------|-/2-------2---| 
d|------0---0---|------0---0---|------0---0---|------0---0---|------0---0---| 
a|--0-----------|--0-----------|--2-----------|--0-----------|--0-----------| 
e|--------------|--------------|--------------|--------------|--------------| 
 
 
 
    D              A                             D 
 
e|--------------|------5---5---|--3---5---3---|------5---7-5-|--------------| 
b|-/3-----3-----|----2---2---2-|--------------|-/7-----------|--------------| 
g|-/2-------2---|--2-----------|--------------|--------------|--7-----------| 
d|------0---0---|------2---2---|------2---2---|------0---0---|------0---0---| 
a|--0-----------|--0-----------|--0-----------|--0-----------|--0-----------| 
e|--------------|--------------|--------------|--------------|--------------| 
 
 
 
    G              D                             G7  A          D 
 
e|--------------|--------------|-/2------/2---|------5-------|------2-------| 
b|--0---3---0---|--------------|-/3-----3/3---|--0-----------|------3-------| 
g|--------------|--2-----------|-/2------/2---|--------------|------2-------| 
d|------0---0---|------0---0---|------0---0---|------0-------|--0-----------| 
a|--2-----------|--0-----------|--0-----------|----------3-4-|------------0-| 
e|--------------|--------------|--------------|--3-----------|----------2---| 
 
 
 
 
e|------2---2---|| 
b|------3---3---|| 
g|------2---2--.|| 
d|--0----------.|| 
a|--------------|| 
e|--------------|| 
 
 

		  

Full key step upFull key step up
Half key step upHalf key step up
Half key step downHalf key step down
Full key step downFull key step down
hide glossary

See also:

tabs Rival Sons - Where I've Been tabs Rival Sons - Memphis Sun tabs Blind Boy Fuller - Careless Love tabs Stevie Ray Vaughn and Double Trouble - Life By The Drop tabs The Rev. Peyton's Big Damn Band - Worryin' Kind tabs Cowboy Bebop - Blue
e-chords

Other versions:

tabs Mississipi John Hurt - Nobody cares for me
auto scroll beats size up size down change color hide chords drawings
tab show chords e-chords YouTube Clip e-chords hide all tabs e-chords go to top tab

share