Blind Boy Fuller

Little Woman You're So Sweet

Blind Boy Fuller

tabs Expert expert

by  ROWANE

save to print version add songbook text version e-mail correct tuner
chordsukulelecavacokeyboardtabbassdrumsharmonicaflute Guitar Pro
close

there isn't a video lesson for this song

chords

Little Woman You're So Sweet

	  		                                                         
D ||---------------------|------------------------|-------0--0-------------| 
A ||---------------------|-------0----------------|------------------------| 
F#||----------0----0--0--|--0----0--------0--0----|------------------------| 
D ||----------3b---3b-3b-|--3b---0-----0--3b-3b---|-------0-----0----0-----| 
A ||---------------------|-------x----------------|--3------------------1--| 
D ||---------------------|----------0-------------|------------------------| 
 
 
                                                        
-----0--------------------|---------------------------| 
--------0-----0-----------|---------------------------| 
--------------------------|---------------------------| 
-----------0-----3--0-----|--3b---0-----0--3----0--0--| 
--2--------------------2--|----------2----------------| 
--------------------------|---------------------------| 
 
 
                                                                                
-------0--0-----------------|-----------------------|----------0-----0-----0--| 
----------------------------|-----------------------|-------3-----2-----1-----| 
----------------0--1--2--3--|-----------------------|-------3-----2-----1-----| 
-------0--------------------|--------------0--3--0--|-------------------------| 
----------------------------|------0----3-----------|-------------------------| 
--0----------0--------------|-----------------------|--0----------------------| 
 
 
                             
--------------------------|| 
--0------0--0-------------|| 
--0---------1-------------|| 
---------------2----------|| 
---------0-----------0----|| 
-----2/4----------2-------|| 

		  

See also:

tabs John Lee Hooker - Boom Boom tabs B.B. King - Three O'Clock Blues tabs Cowboy Bebop - Rain tabs John Lee Hooker - Im in the mood tabs Robert Johnson - Love in Vain tabs Robert Johnson - Come on in my kitchen
e-chords

Other versions:

tabs Blind Boy Fuller - Little Woman You're So Sweet
auto scroll beats size up size down change color hide chords drawings
tab show chords e-chords YouTube Clip e-chords hide all tabs e-chords go to top tab

share