John Lee Hooker

Boom Boom

John Lee Hooker

tabs Expert expert

save to print version add songbook text version e-mail correct tuner
chordsukulelecavacokeyboardtabbassdrumsharmonicaflute Guitar Pro
close

there isn't a video lesson for this song

chords

Boom Boom

	  		Artist(s):John Lee Hooker 
Song     :Boom Boom 
Tuning   :Standard (EADGBE) 
Tabbed By:Andy Mackin ([email protected]) 
 
 
E||---------------------------------------------------|| 
B||-----3---------------------------------------------|| 
G||-2/4---4\2--0----------------0--3/2--0-------------|| 
D||--------------2--x--2------2------------2---x---2--|| 
A||---------------------------------------------------|| 
E||---------------------------------------------------|| 
 
 
E||-------------------------------------------------|| 
B||-----3------------0------------------------------|| 
G||-2/4---4\2--0--------------0--3\2--0-------------|| 
D||---------------2--------2-------------2---x---2--|| 
A||---------------------0---------------------------|| 
E||-------------------------------------------------|| 
 
 
E||-------------------------------------------------0--0--|| 
G||------3------------------------------------------0--0--|| 
B||-2/4-----4\2--0--2---0---2-----------0---0----------1--|| 
D||-------------------------------0--2----------2------2--|| 
A||----------------------------2--------------------------|| 
E||-------------------------------------------------------|| 
 
 
 
 
Any questions/comments email me at [email protected] 
 

		  

See also:

tabs Corey Smith - Twenty-One tabs B.B. King - How blues can you get tabs Muddy Waters - Champagne & Reefer tabs Allman Brothers Band - Its Not My Cross To Bear tabs Robert Johnson - Walkin' Blues tabs Noah Lewis - New Minglewood Blues
e-chords

Other versions:

tabs John Lee Hooker - Boom Boom tabs John Lee Hooker - Boom Boom (ver. 2) tabs Bloodhound Gang - Boom Boom Boom (Cover-Song) tabs Black Eyed Peas - Boom Boom Pow
auto scroll beats size up size down change color hide chords drawings
tab show chords e-chords YouTube Clip e-chords hide all tabs e-chords go to top tab

share