Jimi Hendrix Experience

Little Wing

Jimi Hendrix Experience

tabs Expert expert

save to print version add songbook text version e-mail correct tuner
chordsukulelecavacokeyboardtabbassdrumsharmonicaflute Guitar Pro
close

there isn't a video lesson for this song

chords

Little Wing

	  		Intro.. 
  
---------12\-----------------------------------------3 5 3 3-----  
---------12\----------------------------5------------3--------- 
------X--12\--------X-----------0---5---5------0----------------- 
------X-------------X----X-------5--5---7\-------------------5--- 
------X--12\--------X----X--0-2--5-7------------------------------ 
------------0------------X-----------------2\3-------------------- 
  
  
  
------------------------------------------------------------------ 
----3---3----------------------------------------5---------------- 
--4-5---5--4-5--4---------------------5--------5-7---------------- 
------------------5-------------------5--------------5-7--5------- 
--------------------------------5--7----7------------5-7--5------- 
-----------------------5-------------------------------------5-7\- 
  
-----------------------------------------------------9--10--9----- 
----------8-10-8-------------------------------------7--10--7----- 
----------7------7-------7--7--7-----7-------------------7--7----- 
-------------------9---7-7--9--7-7---7------------9--------------- 
-------------------7-7-10--------10--7---------------------------- 
----0--------------------------------------7---------------------- 
  
  
  
  
  
  
----------7-------------------------------------------------------- 
---7-10---7-------------------------------------------------------- 
------------7------6------------5--5-5--5------------5-5--5-------- 
------------9------8\7--------5-7--9-7--5--5-----5---5-7--5-------- 
-----------------X-------------------------8-----7----------------- 
-------------7-6-----------5---------------------------------5\7--- 
  
-----------5/7--4--5-----5\3--------------------------------------- 
-----------3/5-----3-----5\1--1----1----1------------------3-1-0--- 
-------0---0-------0-----0----0----0----0--------2----2----2------- 
-------5---5/7-----------5\3-------3----3--------2--2-------------- 
---------------------------------------------0-3--------------3---- 
--2/3-----------------0---------1-----1----1----------------------- 
  
  
  
  
-------------------------------------------------------------------- 
------------------------------7------------------------------------- 
--------------------------7---7------7---7------------7------------- 
----------7-------7-------7---9------7---7---7---7----7------------- 
---3/5-----5--------5------------------------10--7------------------ 
--------------------------------------------------------------------- 
 
 
 
 
E  X_______0__XX__>5^7_____________ >3___________________________ 
A  X__________XX_______________  7>______________________________ 
D  X_12>______XX______ 5__5^7_5__________0_____5_5___5_5_5___5__5 
G  X_12>______XX______ 5__5___5__________0_____4_4^5_5_4_4^5_4___ 
B  X_12>______XX_________________________3_____3_3___3_3_3___3__ 
E  X_12>______XX_________________________3^5^3__3_3___3_3_3___3__ 
 
 
____________________________7>__0_________>10__________________ 
_______5^7___7________5^7_5_____________________7_10____________ 
_5_5>7_____5___5^7_5__5___5___________________________7_7___7___ 
___________5___5___5________________7_________________7_7^9_7___ 
____________________________________7^8^7_______________________ 
________________________________________________________________ 
 
 
_________>7_____________6___5_________________________5^7__>3 
_10__7___________________________________8_7_________________ 
_______________________________7_7^9_7__5_5_5_5^7__5__________ 
____________7_7_7_7__7____6____5_5___5__5_____5____5_________ 
____________7_7_7_10_7____6__________________________________ 
____________7_9_7_7__7____6__________________________________ 
 
 
_______________________________________________10>_ 
___________________2>3____3>5__________10____7_____ 
_5>_7_7>_5_5>_3_3______5______7__7^9_7____7________ 
_0>_0_0>_0_0>_0_0______5______7__7___7____7________ 
_3>_5_5>_3_3>_1_1______5______7____________________ 
_5>_7_7>_5_5>_3_3__________________________________ 
 
 
 
 
 
  
 
 
Intro 
----- 
 
e------12\----------x----x----------------------------3---3------| 
B------12\----------x----x----------------------------3h5-3------| 
G------12\----------x----x-----------------------------------5---| 
D------12\----------x----x---------------------------------------| 
A-------------------x----x---------0---------5h7-----------------| 
E---0---------0-----x----x---0h2--------5h7-------3--------------| 
                     strum 
                     muted strings 
 
 
e-----3-3-3-3-3-----------------------------------------| 
B-----5-5-4-5-4-4---------------------------------------| 
G---------------5------------------5--------------------| 
D-----------------------------5----5h7--5---------------| 
A-------------------------5-7---7----------7--5h7p5-----| 
E----------------------5-----------------------------7--| 
 
e-----------------7-9-7--------------|       C chord: x32010 
B-----------------7---7---10---7-----|       D chord: xx0232 
G--------------------------------9---| 
D-------0h2--------------------------| 
A------------------------------------| 
E----0--------7----------------------|                         
 
e-----------------------------------|---5/////7\\\\5-----3--| Strum 4 C chords 
B-----------------------------------|---3/////5\\\\3-----1--| and 4 D Chords 
G--------------5--------------------|-----------------------| 
D---------5----5h7--5---------------|---5/////7\\\\5-----3--|   
A-----5-7---7----------7--5h7p5-----|-----------------------| 
E--5-----------------------------7--|---3/////5\\\\3-----1--| 
 
Verse 
-- 
Em  G  Am  Em Bm Am G  F  C  D 
 
 
 
 
LITTLE WING (SOLO) BY JIMI HENDRIX   
 
 
   Em                                G 
        full   full                         full        full 
e-------/-----/\-----------------|----------/\----------/-------| 
B-.--15/---15/--(15)--12--12--15-|--12---12/--\--------/----15--| 
G--------------------------------|-------------\12--14/---------| 
D--------------------------------|------------------------------| 
A-.------------------------------|------------------------------| 
E--------------------------------|------------------------------| 
 
    Am7 
        full                  full       full     _____ 
e-------/\--------------------/\---------/--\----/------\-------| 
B------/--\------------------/--\-------/----\--/--------\------| 
G---14/----\(14)------12--14/----\(14)-/------\(14)------(14)---| 
D-----------------14-----------------------------------------12-| 
A---------------------------------------------------------------| 
E---------------------------------------------------------------| 
   Em7 
 
                 full 
e---------------/------------------------------------------------ 
B--------------/------------------------------------------------- 
G-------12--14/------12--14----12-14--12p14-~~~~~---------------- 
D--14-----------------------14----------------------------------- 
A---------------------------------------------------------------- 
E---------------------------------------------------------------- 
 
   B7                               Bb 
                                           full 
e-----------------------------------------/-\-------------------- 
B----------------------------------------/---\------------------- 
G--12p14-~~~---14p16~~~---14p12~~~~---14/-----\-14--------------- 
D---------------------------------------------------------------- 
A---------------------------------------------------------------- 
E---------------------------------------------------------------- 
 
     Am                           C 
                                  full~~~ 
                                  _____ 
e--------------------------------/-----\------------------------- 
B-12p13p12---13p12--13p12-----15/-------\-(15)-12---------------- 
G--------------------------12------------------------------------ 
D---------------------------------------------------------------- 
A---------------------------------------------------------------- 
E---------------------------------------------------------------- 
 
 
 
     G                              F(add9) 
 
        full          full   slide                  /1/2\ 
e------/-----15--15-----/-15--------13-------------/-----\-------- 
B-----/----------------/-----\--------13-------13-/------(13)--13- 
G--14/--------------14/-------12----------12---12---------12---12- 
D----------------------------------------------------------------- 
A----------------------------------------------------------------- 
E----------------------------------------------------------------- 
 
 this part is 2/4                 this part is 4/4 again 
 
     C                              D 
 
e--------------------------------|--------------------------------------------- 
B---8p---p----------8p---p-------|------------10----10p--p----10--------10----- 
G---7p-9-p-7--------7p-9-p-7-----|------------9-----11p12p11--11--9-----9------ 
D--------------10------------10--|-/ 12---12-----12-----------------12------12- 
A--------------------------------|--------------------------------------------- 
E--------------------------------|--------------------------------------------- 
 
   repeat and fade out           chards 
 
          slow dive with bar    Em  G   Am7  Em7  Bm7  Bb  Am  C   F(add9) D 
e------12\--------------------|-0---3---0----0----2----1---0---0----3------2--- 
B------12-\----/-----------.--|-0---0---1----3----0----3---1---1----1------3--- 
G------12--\--/---------------|-0---0---0----0----2----3---2---0----2------2--- 
D--12--12---\/----------------|-2---0---2----2----0----3---2---2----3------0--- 
A--------------------------.--|-2---2---0----2----2----1---0---3----0------0--- 
E-----------------------------|-0---3---0----0----0----0---0---0----0------0--- 
 
 
                                         H 
e:---12\-------------------------------3-5-3-----------------------------| 
B:---12\----------------------5--------3-3-3-------3--3------------------| 
G:x--12\----x---------0-----5-5------0-----------4-5--5-4-5--4-----------| 
D:x---------x--x--------5---5-7\--------------5----------------5---------| 
A:x--12\----x--x--0-2---5-7------------------------------------------5--7| 
E:-------0-----x-----------------2\3-----------------------------5-------| 
 
 
e:------------------------------------------------------------------9-10-| 
B:----------5-5-------------------8-10-8----------------------------7-10-| 
G:--5-----5-7-5-7-----------------7------7--------7-7-7----7-----------7-| 
D:--5-----------7--5-7--5------------------9---7--7-9-7-7--7-----9-------| 
A:-----7-----------5-7--5------------------7-7-10-------10-7-------------| 
E:------------------------5-7\-0-----------------------------7-----------| 
 
 
e:-9--------7--------------------------------------------------------5/7-| 
B:-7--7-10--7--------------------------------------------------------3/5-| 
G:-7----------7------6---------5--5-5--5--------5-5--5------------0--0---| 
D:------------9------8\7-----5-7--9-7--5--5--5--5-7--5------------5--5/7-| 
A:------------------x---------------------8--7---------------------------| 
E:--------------7-6-------5-----------------------------5\7--2/3---------| 
 
 
e:-5--5\3-----------------------------------------------------------------| 
B:-3--5\1--1---1---1--------1-----1--3\1--------------------7-------------| 
G:-0--0----0---0---0--------0---0----2-------------------7--7-----7--7----| 
D:----5\3----3-3-3-3--3-----------------------7----7-----7--9-----7--7--7-| 
A:----------------------0-3---3----------3/5--5-5--5--5-----------------10| 
E:------------------------------------------------------------------------| 
                      
                      
                      
e:--------|--Drums--| 
B:--------|---------| 
G:----7---|---------| 
D:--7-7---|---------| 
A:--7-----|---------| 
E:--------|---------| 
 
 
 
                         H P                  H    H 
e:--12\------------------------------------------------------------------| 
B:--12\------------------------------------------------------------------| 
G:--12\----------------0-2-0--------------------------------------------7| 
D:---------------------2-------2-------------------------------5--7--5--7| 
A:---------------------2--------------------5-7--------------------------| 
E:-------0-----------------------0-0-0-0---------5-7--3------------------| 
    Well she's walkin                       through the clouds 
 
 
 
                                                                  H   P 
e:------------------------------------------------------------------------| 
B:-------------------------------------------------------------8--10--8--8| 
G:--7--7--7----------------------------------------------------7----------| 
D:--9--7--7-----------------------9--7--7------7---7----------------------| 
A:--------10----------------------7--7--10--7--10--7----------------------| 
E:------------7---------------------------------------0-------------------| 
              with a circus mind           that's running wild 
 
 
 
e:------------------------7--9--7----------------------------------------| 
B:----8-------------------7--------10--7--7----H-p-------------H--P------| 
G:------7---------------------------------7--7-9-7----------7--9--7------| 
D:--------9----------------------------------------9--8--8--8--------7---| 
A:-----------------------------------------------------------------------| 
E:------------7----------------------------------------------------------| 
              butterflies and zebras           and moonbeams 
 
 
                                                   P Tab 
e:------------------------------------3----3-3---------------------------| 
B:----------------------------------1-0----3-3---------------------------| 
G:5--5--5-----------------------------0-0--------5-4---------------------| 
D:9--7--5-----5-5-5-5-5-5\---------------------------5-------------------| 
A:------------8-7-8-7-8-8\-----------------------------------------------| 
E:-------------------------3---------------------------3-----------------| 
              and, uh fairy tales       that's all she ever think's about 
 
 
 
e:---------------------------------------------| 
B:---------------------------------------------| 
G:-----------------------------------------7---| 
D:---------(10)----------------------------7---| 
A:---------------------12---9------------------| 
E:------/8------/10---(10)-(10)-10--10-10------| 
          riding with the wind 
 
 
                  H P       H  P 
e:--------------0--------0-----------------------------------------------| 
B:--------------0-2-0----12-14-12--------0-------------------------------| 
G:--------------------------------14-12--9-------------------------------| 
D:----------2-------------------------------12-9-------------------------| 
A:----------2------------------------------------------------------------| 
E:---/12\---0--------------------------------------------------------3---| 
  When I'm sad                                          She comes to me 
 
 
   .   .   .   . 
e:-----------------------------------------------------------------------| 
B:-----------------------------------------------------------------------| 
G:-7/9\7/9\7/9\7---------------------------------------------------------| 
D:-7/9\7/9\7/9\7---------------------------------------------------------| 
A:-------------------------------------------------------5--7--5---------| 
E:------------------12\--5-----------------------5-5--7-----------3--5--0| 
                         With a thousand smiles            She gives to me 
 
 
 
                 H   P                     H 
e:-------------------------------------------------------------------9--10| 
B:------------8--10--8-----------------------------------------------7--10| 
G:------------7------------------------------------------------------7--7-| 
D:------------------------------------------------------------------------| 
A:---------------------------------12--12--14--14-------------------------| 
E:----------------------12--12--0-------------------7---------------------| 
    free                                               It's alright, she 
 
 
                                H  P 
e:---9--7------------------------------------------------------------------| 
B:---7--7--------------------5--7--5--5------------------------------------| 
G:---7--7--------------------4---------------------------------------------| 
D:------------9---------9--------------------7--9--7--7-------5-5-5-5-5-5-8| 
A:--------------9----9-----------------------7--7--7--10------7-8-7-8-7-8-7| 
E:----------------7--------------------------------------------------------| 
  says it's alright                                           Take anything 
 
 
 
e:--------------------5/7--5\3--3---------------------------------------| 
B:--------------------3/5--5\1--1---------------------------------------| 
G:------------2/4-----0----0----0---------------------------------------| 
D:--------------------5/7--5\3--3------------------------------12-12-12-| 
A:---------------------------------------------10--10----------12-12-12-| 
E:-------3---------3----------------------3/8----------8--/10--10-10-10-| 
   you want from me          anything                    anything 
 
 
                            Whammy Bar 
e:---------------------------12\------------| 
B:---------------------------12\------------| 
G:---------------------------12\------------| 
D:12-12--12--12-12--12-12-------------------| 
A:12-12--12--12-12--12-10-------------------| 
E:10-10--10--10-10--10-10-------------------| 
 
 
 
 
  Solo 
e:------------------------------------------------------------------------| 
B:-----15b(17)--15b(17)--15--12--12--15--12-----b(17)\15------------------| 
G:--------------------------------------------------------12-------14b(16)| 
D:------------------------------------------------------------------------| 
A:------------------------------------------------------------------------| 
E:13\---------------------------------------------------------------------| 
                                                Fly  on little wing 
 
 
e:--------------------------------------------------------------------| 
B:---14---------------------------------------------------------------| 
G:-b(16)--14b(16)-14---14b(16)\14--12--14--14b(16)\14b(16)---b(16)\14-| 
D:--------------------------------------------------------------------| 
A:--------------------------------------------------------------------| 
E:--------------------------------------------------------------------| 
 
 
  P 
e:-----------------------------------------------------------------------| 
B:-------------------------------------------------10/12-----------------| 
G:12------12-14b(16)-12-14-----12-14-12/14--12/14--------10/12--14b(16)--| 
D:---14---------------------14-------------------------------------------| 
A:-----------------------------------------------------------------------| 
E:-----------------------------------------------------------------------| 
 
 
 
    H  P 
e:--------------------------------------------------------15--15----------| 
B:12-13-12-13-12-13-12-----15b(17)--b(17)\15--12----------15--15----------| 
G:---------------------12-------------------------14b(16)---------14b(16)-| 
D:------------------------------------------------------------------------| 
A:------------------------------------------------------------------------| 
E:------------------------------------------------------------------------| 
 
 
 
                                    H  P            H  P 
e:-15------13----------13------------------------------------------------| 
B:-15----------13------13----13------------------------------------------| 
G:-----12----------12----------------------------------------------------| 
D:-------------------------------12-14-12--------12-14-12----------------| 
A:-------------------------------12--------15----12--------15--15/17-----| 
E:-----------------------------------------------------------------------| 
                                                                        
 
 
          H  P                          Whammy bar 
e:---------------------------------------12\-----------------12-----------| 
B:---------------------------------------12\---------15b(17)------15b(17)-| 
G:---------------------------------------12\------------------------------| 
D:12--14--16--14--12--14--14--12--12--------------------------------------| 
A:12--12--12--12--12--12--12--12--12--------------------------------------| 
E:------------------------------------------------------------------------| 
  (with reverb or wah wah or something)                             Yeah,  
 
 
e:------------------------------15---15----------15----------15----------| 
B:15----------------------------15---15----------15----------15----------| 
G:----14b(16)--14--12---14b(16)----------14b(16)-----14b(16)-----14b(16)-| 
D:-----------------------------------------------------------------------| 
A:-----------------------------------------------------------------------| 
E:-----------------------------------------------------------------------| 
  yeah, yeah, yeah          ... little wing wing 
 
 
 
e:15-------------------------------------------------------| 
B:15-------------------------------------------------------| 
G:----b(16)\14--12--14------12--14--14b(16)--12--14--12----| 
D:----------------------14-------------------------------14| 
A:---------------------------------------------------------| 
E:---------------------------------------------------------| 
 

		  

Full key step upFull key step up
Half key step upHalf key step up
Half key step downHalf key step down
Full key step downFull key step down
hide glossary

See also:

tabs Simon & Garfunkel - Sounds of silence tabs R.E.M. - Everybody Hurts tabs Guns N' Roses - Knockin' On Heaven's Door tabs John Mayer - Belief tabs The Wonders - That Thing You Do tabs Cheap Trick - The Flame
e-chords

Other versions:

tabs Stevie Ray Vaughn and Double Trouble - Little Wing tabs Jimi Hendrix Experience - Little Wing tabs Skid Row - Little Wing tabs The Corrs - Little Wing tabs Stevie Ray Vaughan - Little Wing tabs Jimi Hendrix Experience - Little Wing (ver. 2)
auto scroll beats size up size down change color hide chords drawings
tab show chords e-chords YouTube Clip e-chords hide all tabs e-chords go to top tab

share