Salvation Is Here

Hillsong United

Salvation Is Here

tabs Advanced advanced

by  RTBM

save to print version add songbook text version e-mail correct tuner
chordsukulelecavacokeyboardtabbassdrumsharmonicaflute Guitar Pro
close

there isn't a video lesson for this song

chords

Hillsong United

	  		Hillsongs United  - The Time Has Come 
Standard Tuning: EADG 
Tabbey By: RTBM 
 
Listen to the song where to play more notes of the same kind. 
for example: in the verse there is a slide to (/12) (A). when you play the 
song you'll feel how much 12's there are, but i did'nt count them out :)) 
 
 
 
Intro: 4 Bars end on 1st note of new bar 
G|---------------------------------------------------| 
D|---------------------------------------------------| 
A|-/12-12--------------------------------------------| 
E|---------------------------------------------------| 
 
Verse 
G|---------------------------------------------------| 
D|-------------------------------------------7h9-----| 
A|-997-7h999-554-4h555---------/12,12,12,12-----/12--| 
E|--------------------554-4h555-------------5--------| 
 
Verse 
G|---------------------------------------------------| 
D|---------------------------------------------------| 
A|-997-7h999-554-4h555---------/12,12,12,12----------| 
E|--------------------554-4h555----------------------| 
 
Chorus I 
G|---------------------------------------------------| 
D|---------------------------------------------------| 
A|--77-9-5-5/7\5-77-7-999999-5--55555555-------------| 
E|-----------------0-0-------------------------------| 
 
Chorus II 
G|-------------------------------------------------------------------| 
D|-------------------------------------------------------------------| 
A|-----9999-5555----/12,12,12,12-----9999-5555----/12,12,12,12-(12)--| 
E|-5555---------5555-------------5555---------5555-------------------| 
 
Verse 
G|---------------------------------------------------| 
D|-------------------------------------------7h9-----| 
A|-997-7h999-554-4h555---------/12,12,12,12-----/12--| 
E|--------------------554-4h555-------------5--------| 
 
Verse 
G|--------------------------------------------| 
D|--------------------------------------------| 
A|-997-7h999-554-4h555---------/12,12,12,12---| 
E|--------------------554-4h555---------------| 
 
Chorus I 
G|--------------------------------------------| 
D|--------------------------------------------| 
A|--77-9-5-5/7\5-77-7-999999-5--55555555------| 
E|-----------------0-0------------------------| 
 
Chorus II 
G|--------------------------------------------------------------------| 
D|--------------------------------------------------------------------| 
A|-----9999-5555----/12,12,12,12-----9999-5555----/12,12,12,12--------| 
E|-5555---------5555-------------5555---------5555--------------------| 
 
Verse: 2X 
G|--------------------------------------------| 
D|--------------------------------------------| 
A|-997-7h999-554-4h555---------/12,12,12,12---| 
E|--------------------554-4h555---------------| 
 
Bass Solo: 2X 
G|--------------------------------------------| 
D|---7-9--7-9--7-9--7-9--7-9-------7-9--------| 
A|-99---99---99---99----------7-9------77-----| 
E|---------------------77---77---77---7--7----| 
 
Bass Solo With Vocals: 
G|----------------------------------------------------------------------------| 
D|---7-9--7-9--7-9--7-9--7-9-------7-9------7-9-------7-9--------------7h999--| 
A|-99---99---99---99----------7-9------77-55---55-7-55---55-7------7777-------| 
E|---------------------77---77---77---7--7---------5---------5-5555-----------| 
 
Chorus I and II 
 
VERSE 
 
END 
 
 
 

		  

See also:

tabs The Raveonettes - silent night (ver. 2) tabs The Raveonettes - joy to the world tabs Emery - Disguising Mistakes And Goodbyes tabs Vineyard - Vim Para Adorar-te tabs Pillar - Fireproof tabs Caedmon's Call - Lead of Love
e-chords

Other versions:

tabs Salvation Is Here - Hillsong United
auto scroll beats size up size down change color hide chords drawings
tab show chords e-chords YouTube Clip e-chords hide all tabs e-chords go to top tab

share