Marcelo Barbosa

Memories

Marcelo Barbosa

tabs

by  GUSTSILVA

save to print version add songbook text version e-mail correct tuner
chordsukulelecavacokeyboardtabbassdrumsharmonicaflute Guitar Pro
close

there isn't a video lesson for this song

chords

Memories

	  		Primeira Parte: 

E|----------------------------------------------------| 
B|-6/8~------------10~--9b10r9b10r9b10r9--------------| 
G|------9~-------------------------------9~-----------| 
D|---------9-9/10~------------------------------------| 
A|----------------------------------------------------| 
E|----------------------------------------------------| 

E|----------------------------------------------------| 
B|----------------------------------------------------| 
G|--------------------------------9~\-----------------| 
D|-7-9-9/10--9--7-------------------------------------| 
A|-----------------7~---9p7-9/11~---------------------| 
E|----------------------------------------------------| 

E|----------------------------------------------------| 
B|----------------------------------------------------| 
G|-------10~--\9-11-b13r11-9~-----------------7-9-11--| 
D|-----9------------------------------7-9-10----------| 
A|-/12-------------------------7-9-10-----------------| 
E|----------------------------------------------------| 

E|----------------------------------------------------| 
B|-8-10-12-12b13r-12--10------------------------------| 
G|-----------------------9~\--------------------------| 
D|----------------------------------------------------| 
A|----------------------------------------------------| 
E|----------------------------------------------------| 

(Segunda Parte) 

E|-14b16r-12~---------17~--16b17r16-------------------| 
B|-------------12-13~---------------17----------------| 
G|-------------------------------------16-14-13b14r13-| 
D|----------------------------------------------------| 
A|----------------------------------------------------| 
E|----------------------------------------------------| 

E|---------------------------------------------17-----| 
B|------------------------------------19----15--------| 
G|---------------------------------14-----------------| 
D|-14------------------------------------16-----------| 
A|----14~--12-14-14/15--14-12--/17--------------------| 
E|----------------------------------------------------| 

E|-------17b20r17--16b17r16~~----------15-17-19-------| 
B|-15h17----------------------15-17-19----------------| 
G|----------------------------------------------------| 
D|----------------------------------------------------| 
A|----------------------------------------------------| 
E|----------------------------------------------------| 

E|-19b20-19-17-20b22r20-19b20r19b20r19b20r19~~--------| 
B|----------------------------------------------------| 
G|----------------------------------------------------| 
D|----------------------------------------------------| 
A|----------------------------------------------------| 
E|----------------------------------------------------| 

E|-19-17-15----------20-19-17----------22b24-22-20----| 
B|----------19-17-15----------20-19-17----------------| 
G|----------------------------------------------------| 
D|----------------------------------------------------| 
A|----------------------------------------------------| 
E|----------------------------------------------------| 

E|-22b24~~--------------------------------------------| 
B|----------------------------------------------------| 
G|----------------------------------------------------| 
D|----------------------------------------------------| 
A|----------------------------------------------------| 
E|----------------------------------------------------| 

(Primeiro Refrão) 

E|----------------------------------------------------| 
B|-15b17r15p12-15b17-15~-------------------12-15-13-12| 
G|-----------------------11-14-12-11-12-14------------| 
D|----------------------------------------------------| 
A|----------------------------------------------------| 
E|----------------------------------------------------| 

E|-------12-14-15-14-12-15b17-b16r14p12---------------| 
B|-13-15--------------------------------12------------| 
G|-----------------------------------------13-12-11~--| 
D|----------------------------------------------------| 
A|----------------------------------------------------| 
E|----------------------------------------------------| 

E|----------15-------19-21p17-------------------------| 
B|-------15-------15----------17----------------------| 
G|-15/16-------------------------18-------------------| 
D|-------------17-------------------19----------------| 
A|-------------------------------------19-17-16~------| 
E|----------------------------------------------------| 

E|----------------15----15b17~-19-22p19----------19---| 
B|-15b17r15p12-12----12-----------------20----20------| 
G|-----------------------------------------19---------| 
D|----------------------------------------------------| 
A|----------------------------------------------------| 
E|----------------------------------------------------| 

E|----------------------------------------------------| 
B|-20b22~---------------------------------------------| 
G|----------------------------------------------------| 
D|----------------------------------------------------| 
A|----------------------------------------------------| 
E|----------------------------------------------------| 

                                                 ~~ 
E|-----------------------12-14-14b15r-14-12-15b17--r--| 
B|-15b17r15p12-15b17-15~------------------------------| 
G|----------------------------------------------------| 
D|----------------------------------------------------| 
A|----------------------------------------------------| 
E|----------------------------------------------------| 

            ~~\ 
E|----------------------------------------------------| 
B|-p12h15p12------------------------------------------| 
G|----------------------------------------------------| 
D|----------------------------------------------------| 
A|----------------------------------------------------| 
E|----------------------------------------------------| 

(Terceira Parte) 

E|----------------------------------------------------| 
B|-----8---10b-8b-------------------------------------| 
G|-7/9---9--------9-----7-9p7-------------------------| 
D|------------------9-7-------9-8-7-5h6---------------| 
A|--------------------------------------7~------------| 
E|----------------------------------------------------| 

E|----------------9-12p9------------------------------| 
B|-------------10--------10---------------------12----| 
G|---------6/9--------------9----------------12-------| 
D|-------7--------------------11----------12----------| 
A|-----7-------------------------12-10h14-------------| 
E|-5h9------------------------------------------------| 

            T                       T 
E|-10h12h15-22p15p12p10-------------------------------| 
B|----------------------15p12p10h12-20p15p12p10h12h15-| 
G|----------------------------------------------------| 
D|----------------------------------------------------| 
A|----------------------------------------------------| 
E|----------------------------------------------------| 

            T 
E|-10h12h15-22b24~~-----------------------------------| 
B|----------------------------------------------------| 
G|----------------------------------------------------| 
D|----------------------------------------------------| 
A|----------------------------------------------------| 
E|----------------------------------------------------| 

E|-----------------------19b22-19-18-17-18-19-15b-----| 
B|-----15-15----15h17-15------------------------------| 
G|-/16-------16---------------------------------------| 
D|----------------------------------------------------| 
A|----------------------------------------------------| 
E|----------------------------------------------------| 

E|----------15----------------------------------------| 
B|-17p14h17----17~------------------------------------| 
G|----------------------------------------------------| 
D|----------------------------------------------------| 
A|----------------------------------------------------| 
E|----------------------------------------------------| 

E|-12h14h15p14p12-------------------------------------| 
B|----------------14p12p10h12h14p12p10----------------| 
G|-------------------------------------12p11p9h11h12p-| 
D|----------------------------------------------------| 
A|----------------------------------------------------| 
E|----------------------------------------------------| 

                                   ~~ 
E|----------------------------------------------------| 
B|----------------------------------------------------| 
G|-11p9---------------------------7-------------------| 
D|------11p9p7h9h11p9p7-------------------------------| 
A|----------------------10p9p7\5----------------------| 
E|----------------------------------------------------| 

(Quarta Parte) 

    ~~       ~~   ~~   ~~      ~~         ~~   ~~ 
E|----------------------------------------------------| 
B|-3-----10\9---10---12---12/13---12\10/12----3-------| 
G|-2------------------------------------------2-------| 
D|-0-----7-\6---7----9----9-/10---9-\7-/9-----0-------| 
A|-0------------------------------------------0-------| 
E|----------------------------------------------------| 

            ~~     ~~      ~~      ~~      ~~ 
E|-5-----4-----5------7-------8-------10--------------| 
B|-8b10--7b9---8b10---10b12---11b13---13b15-----------| 
G|----------------------------------------------------| 
D|----------------------------------------------------| 
A|----------------------------------------------------| 
E|----------------------------------------------------| 

    ~~       ~~   ~~   ~~      ~~         ~~   ~~ 
E|----------------------------------------------------| 
B|-3-----10\9---10---12---12/13---12\10/12----3-------| 
G|-2------------------------------------------2-------| 
D|-0-----7-\6---7----9----9-/10---9-\7-/9-----0-------| 
A|-0------------------------------------------0-------| 
E|----------------------------------------------------| 

     P.M   P.M  ~~ 
E|----------------------------------------------------| 
B|-3-----3-----3--------------------------------------| 
G|-2-----2-----2--------------------------------------| 
D|-0--0--0--0--0--------------------------------------| 
A|-0--0--0--0--0--------------------------------------| 
E|----------------------------------------------------| 

            ~~     ~~      ~~      ~~      ~~ 
E|-5-----4-----5------7-------8-------10--------------| 
B|-8b10--7b9---8b10---10b12---11b13---13b15-----------| 
G|----------------------------------------------------| 
D|----------------------------------------------------| 
A|----------------------------------------------------| 
E|----------------------------------------------------| 

(Quinta Parte) 

E|----------------------------------------------------| 
B|------------------------------------8/10~--9h10p9---| 
G|-11b13r11p9~--------------------------------------9-| 
D|---------------------------7-9-10~------------------| 
A|--------------------7-9-10--------------------------| 
E|-------------7-8-10---------------------------------| 

E|-----------------------12-16~-----------------------| 
B|--------------------12------------------------------| 
G|--------------9-/13---------------------------------| 
D|-9----------9---------------------------------------| 
A|---11----11-----------------------------------------| 
E|------12--------------------------------------------| 

E|-20p15-------15p12----------------------------------| 
B|-------17----------13----------------------------13-| 
G|----------17----------14p12----------------12h14----| 
D|----------------------------14----------14----------| 
A|-------------------------------15-12h15-------------| 
E|----------------------------------------------------| 

E|-12-15p14p12----------------------------------------| 
B|-------------13-------------------------------------| 
G|----------------14p12p11----------------------------| 
D|-------------------------12---------------14~-------| 
A|----------------------------14p12p10\9/11-----------| 
E|----------------------------------------------------| 

E|----------------------------------------------------| 
B|----------------------------------------------------| 
G|--------11~-\9-11-b13r11p9--------------------------| 
D|-----10--------------------9------------------------| 
A|-/12-------------------------9b11r9\7~--------------| 
E|----------------------------------------------------| 

E|----------------------------------------------------| 
B|----------------------------------------------------| 
G|----------------------7h9h11p9p7--------------------| 
D|---------------7h9h11------------11p9p7/9h11h12-----| 
A|--------7h9h10--------------------------------------| 
E|-7h9h10---------------------------------------------| 

E|----------------------------------------------------| 
B|----------------------------------------12h14h15----| 
G|-9h11h12p11p9------------------11h12h14-------------| 
D|--------------12p11p9/11h12h14----------------------| 
A|----------------------------------------------------| 
E|----------------------------------------------------| 

(Sexta Parte) 

E|-12h14h15p14p12----------14b16r14-12~-------17----17| 
B|----------------15p14p12--------------12-13----13---| 
G|----------------------------------------------------| 
D|----------------------------------------------------| 
A|----------------------------------------------------| 
E|----------------------------------------------------| 

E|-16b17r16b17r16b17r16b17r16~~-----------------------| 
B|----------------------------------------------------| 
G|------------------------------14-16-16b17-16-14-----| 
D|----------------------------------------------------| 
A|----------------------------------------------------| 
E|----------------------------------------------------| 

E|-------------15-20p15----------------------14-17p14-| 
B|----------17----------17----------------15----------| 
G|-------17----------------17----------14-------------| 
D|-14h17----------------------17-14h16----------------| 
A|----------------------------------------------------| 
E|----------------------------------------------------| 

                               T 
E|-----------------------16h19-22b24~---0-------------| 
B|--15----------------17----------------0-------------| 
G|-----14----------16---------------------------------| 
D|--------16-14h18------------------------------------| 
A|----------------------------------------------------| 
E|----------------------------------------------------| 

                                        ~~ 
E|-/17-20-b22r20-b22r20-19~---------------------------| 
B|----------------------------------------------------| 
G|---------------------------------0---2--------------| 
D|---------------------------x\----0---2--------------| 
A|---------------------------x\--------0--------------| 
E|---------------------------x\----3------------------| 
		  

See also:

tabs Jota Quest - Mais Uma Vez tabs Los Hermanos - Anna Julia tabs Cássia Eller - Malandragem (Acoustic) tabs Legião Urbana - Será tabs Legião Urbana - Hoje A Noite Não Tem Luar tabs Legião Urbana - Eduardo E Mônica
e-chords

Other versions:

tabs Joe Satriani - Memories tabs Yngwie Malmsteen - Memories tabs Manic Drive - Memories tabs Marcelo Barbosa - Memories tabs We Came As Romans - Memories tabs New Found Glory - Memories And Battle Scars
auto scroll beats size up size down change color hide chords drawings
tab show chords e-chords YouTube Clip e-chords hide all tabs e-chords go to top tab

share