Engenheiros do Hawaii

Era um garoto...

Engenheiros do Hawaii

tabs Beginner beginner

by  K.I.N.H.O

save to print version add songbook text version e-mail correct tuner
chordsukulelecavacokeyboardtabbassdrumsharmonicaflute Guitar Pro
close

there isn't a video lesson for this song

chords

Era um garoto...

(Migliacci / Lusini)

	  		Intro:  
   F#                             (C#7)           (B)  
E|-----------------------------------------------------------------|2  
B|-7---6---7---6---7---6---7---6---6---4---6---4---4---2---4---2---|v  
G|---6---6---6---6---6---6---6---6---4---4---4---4---1---1---1---1-|e  
D|-----------------------------------------------------------------|z  
A|-----------------------------------------------------------------|e  
E|-----------------------------------------------------------------|s  
 
Os acordes são tocados da seguinte forma:  
   F#               C#7                B  
E|----------------------------------------------------|  
B|-7----6-7---6------6----4-6---4------4----2-4---2---|  
G|---6------6---6------4------4---4------1------1---1-|  
D|----------------------------------------------------|  
A|----------------------------------------------------|  
E|----------------------------------------------------|  
 
 
 F#            C#7         B                       C#7  
  Era um garoto que como eu Amava os Beatles e os Rolling Stones  
 F#             C#7             B                      C#7  
  Girava o mundo sempre a cantar As coisas lindas da América  
 
 F#                 C#7           B         C#7  
  Não era belo mas mesmo assim Havia mil garotas afim  
 F#                    C#7                  B               C#7  
  Cantava "Help" and "Ticket to Ride" Oh! "Lady Jane" and "Yesterday"  
 
 
 F#           B           C#        B        F#  
  Cantava viva a liberdade Mas uma carta sem esperar  
 F#              B         G#                 C#7  
  Da sua guitarra o separou Fora chamado na América  
   F#     B      C#     B  F#  F#     B      G#   C#7  
E|-6-6----7-7-----9--9--7--6-|-6-6----7-7----4----4-|  
B|-7-7----7-7-----9--9--7--7-|-7-7----7-7----4----6-|  
G|-6-6----8-8----10-10--8--6-|-6-6----8-8----6----4-|  
D|---------------------------|----------------------|  
A|---------------------------|----------------------|  
E|---------------------------|----------------------|  
   
    F#  A   B  C     C#     F#  A   B  C    C#  
  Stop com Rolling Stones Stop com Beatles songs  
      B    A#m     G#m   F#   B   A#m  B C  C#  
  Mandado foi ao Viet...nã Lutar com vie.t.congs  
   
 
 F#                      B                        C#                       F#          C#7  
  Tata-tatata, tata-tatata Tata-tatata, tata-tatata Tata-tatata, tata-tatata Tata-tatata  
 
F#            C#7         B                       C#7  
  Era um garoto que como eu Amava os Beatles e os Rolling Stones  
 F#             C#7        B                      C#7  
  Girava o mundo,  mas acabou Fazendo a guerra do Vietnã  
   
 F#                  C#7           B             C#7  
  Cabelos longos não usa mais Não toca a sua guitarra e sim  
 F#                   C#7         B           C#7  
  Um instrumento que sempre dá A mesma nota: rata-tata  
   
 
 F#              B              C#         B      F#  
  Não tem amigos, não vê garotas Só gente morta caindo ao chão  
 F#          B           G#                    C#7  
  Ao seu país não voltará Pois está morto no Vietnã  
   
   F#     B      C#     B  F#  F#     B          G#   C#7  
E|-6-6----7-7-----9--9--7--6-|-6-6----7-7-------------4-|  
B|-7-7----7-7-----9--9--7--7-|-7-7----7-7-------------6-|  
G|-6-6----8-8----10-10--8--6-|-6-6----8-8-------------4-|  
D|---------------------------|--------------------------|  
A|---------------------------|--------------------------|  
E|---------------------------|-------------7-6-5-4------|  
 
    F#  A   B  C       C# B  F#  A   B  C    C#  
  Stop com Rolling Stones  Stop com Beatles songs  
    
   F#  A   B  C       C#         B   F#  A   B  C    C#  
E|---------------------------------|---------------------------9--11-13-9----13-11-9-|  
B|---------------------------------|--------------------------9-9----------9---------|  
G|---------------------------------|------------------------10-----------------------|  
D|------------------6----------4---|----------------------11-------------------------|  
A|--------------8-9--------6-7-----|-------------------------------------------------|  
E|-2---5---7--8-------9--7-------7-|-2---5---7--8-----9------------------------------|  
 
      B        A#m G#m     F#     B   A#m B C     C#  
  No peito um coração não há Mas duas medalhas,  sim  
 
 
Interlúdio: F#  
 
E|----14------14---18----14---18-14----|  
B|-14------14-----------------------14-|  
G|-------------------------------------|  
D|-------------------------------------|  
A|-------------------------------------|  
E|-------------------------------------|  
 
 F#                      B                        C#                       F#          C#7  
  Tata-tatata, tata-tatata Tata-tatata, tata-tatata Tata-tatata, tata- 
tatata Tata-tatata  
 F#                      B                        C#                       F#          C#7  
  Tata-tatata, tata-tatata Tata-tatata, tata-tatata Tata-tatata, tata-tatata Tata-tatata  
 
 
Solo:  
       F#                                        C#7                 F#  
GUITARRA 1  
E|----------------------6-4--------------------------------------------|  
B|------------7--6-4-6------7----------------------------------------7-|  
G|-6-3----3-6------------------6-4-6-------------6---------3---3-4-6---|  
D|-----4-------------------------------4-4-4-6-6-------------6---------|  
A|---------------------------------------------------------------------|  
E|---------------------------------------------------------------------|  
GUITARRA 2  
E|---------------------------------------------------------------------|  
B|-------------------------------------------------------------------7-|  
G|---------------------------------------------------------3---3-4-6---|  
D|--------------------------4------4-3-4-----------4-3-4-6---6---------|  
A|-----------------------------------------------4---------------------|  
E|---------------------------------------------------------------------|  
                                                            F#  
GUITARRA 1  
E|----------------------------------------------------------------------------|  
B|-6-4-------------------------------------------------------------5^---------|  
G|-----6--3-6-3-6-3-------3-------3-------1-1-1-2-2-2-4-4-4-6-6-6-----4-6-7-6-|  
D|------------------4-4h2---4-4h2---4-4-4-------------------------------------|  
A|----------------------------------------------------------------------------|  
E|----------------------------------------------------------------------------|  
GUITARRA 2  
E|----------------------------------------------------------------------------|  
B|----------------------------------------------------------------------------|  
G|--------3-------3-------3-------3-4-----3-----1-----------------------------|  
D|----------4-4h2---4-4h2---4-4h2---------------------4-----------------------|  
A|----------------------------------------------------------------------------|  
E|----------------------------------------------------------2-----------------|  
     F#         B        C#       F#  
E|------------------------------------------------------------------|  
B|------------3-4-7--6-4-------------7-7-9-7-6-4---7--6-4-----------|  
G|-3-3--3-3-5------------6--4-3------------------6--------6-4-3-----|  
D|------------------------------6-4-----------------------------6-4-|  
A|------------------------------------------------------------------|  
E|------------------------------------------------------------------|  
 
E|---------------------------------14-14-16-14-13-11----14--13-11----------------|  
B|-7-7-9-7-6-4---7--6-4------------------------------14-----------14-12-11-------|  
G|-------------6--------6-4-3----------------------------------------------13-11-|  
D|----------------------------6-4------------------------------------------------|  
A|-------------------------------------------------------------------------------|  
E|-------------------------------------------------------------------------------|  
 
E|-14-14-16-14-13-11----14--13-11----------------|  
B|-------------------14-----------14-12-11-------|  
G|-----------------------------------------13-11-|  
D|-4--4--6--4--3--1-----4---3--1-----------------|  
A|-------------------4------------4--2--1--------|  
E|-----------------------------------------4--2--|  
 
F#                     B                       C#                      F#          C#7 B C#7 B   
 Tata-tatata tata-tatata Tata-tatata tata-tatata Tata-tatata tata-tatata Tata-tatata  
F#                      B                        C#                     F#        C#7 B C#7 B   
 Rata-tatata, tata-tatata Rata-tatata, tata-tatata Rata-tatata, Rata-tata Rata-tata  
 
 
 

		  

Full key step upFull key step up
Half key step upHalf key step up
Half key step downHalf key step down
Full key step downFull key step down
auto scroll beats size up size down change color hide chords drawings
tab show chords e-chords YouTube Clip e-chords hide all tabs e-chords go to top tab

share