Legião Urbana

Ainda É Cedo

Legião Urbana

tabs Beginner beginner

by  ELECTRO

save to print version add songbook text version e-mail correct tuner
chordsukulelecavacokeyboardtabbassdrumsharmonicaflute Guitar Pro
close

there isn't a video lesson for this song

chords

Ainda É Cedo

Year: 1985 - Album: Legiao Urbana

(Ico Ouro Preto / Renato Russo / Dado Villa Lobos / Marcelo Bonfá)

	  		Introdução   
   
E|-10----------10--------------------------------------   
B|----10--13------10-----------------------------------   
G|-----------------------------------------------------   
D|-----------------------------------------------------   
A|-----------------------------------------------------   
E|-----------------------------------------------------   
   
   
E|-10----------10-------------10-----------------------   
B|----10--13------10------10------10-------------------   
G|---------------------9-------------------------------   
D|-----------------------------------------------------   
A|-----------------------------------------------------   
E|-----------------------------------------------------   
   
E|-----------------------------------------------------   
B|-----------------------------------------------------   
G|-7--9--10--------------------------------------------   
D|-----------------------------------------------------   
A|-----------------------------------------------------   
E|-----------------------------------------------------   
   
E|-------------10--------------------------------------   
B|-----------------10----------------------------------   
G|-5--7--9---------------------------------------------   
D|-----------------------------------------------------   
A|-----------------------------------------------------   
E|-----------------------------------------------------   


		  

auto scroll beats size up size down change color hide chords drawings
tab show chords e-chords YouTube Clip e-chords hide all tabs e-chords go to top tab

share