We Came As Romans

Memories

We Came As Romans

tabs

by  FERNSANTANA

save to print version add songbook text version e-mail correct tuner
chordsukulelecavacokeyboardtabbassdrumsharmonicaflute Guitar Pro
close

there isn't a video lesson for this song

chords

Memories

	  		
Tuning: Drop C# 

Verse: 
Piano 


Chorus: 

Guitar 1: 
D#||--------------------------------------------------------------| 
A#||--------------------------------------------------------------| 
F#||--------------------------------------------------------------| 
C#||---5-5-5-5-5-5----7-7-7-7-7-7----9-9-9-9-9-9----0-0-0-0-0-0---| 
G#||---5-5-5-5-5-5----7-7-7-7-7-7----9-9-9-9-9-9----0-0-0-0-0-0---| 
C#||---5-5-5-5-5-5----7-7-7-7-7-7----9-9-9-9-9-9----0-0-0-0-0-0---| x4 

Guitar 2: 
D#||--------------9-9-9---10-10----|          |---12-12-12---9-9-9---10-10----| 
A#||---10-10-10--------------------|          |-------------------------------| Play this 
F#||-------------------------------|          |-------------------------------| whole thing 
C#||-------------------------------|          |-------------------------------| 2 times 
G#||-------------------------------|          |-------------------------------| 
C#||-------------------------------| (x3)Then |-------------------------------| 
    Enters second part of the Chorus 


Verse: 
Piano 


-Repeat Chorus- 


Bridge: 

Guitar 1/2 
D#||----------------------------------------------------------------------| 
A#||----------------------------------------------------------------------| 
F#||----------------------------------------------------------------------| 
C#||---0-0---9-7-0---0-0-0-0--9-9--7-7--0-0---9-7-0---0-0-0-0--9-9--7-7---| 
G#||---0-0---9-7-0---0-0-0-0--9-9--7-7--0-0---9-7-0---0-0-0-0--9-9--7-7---| 
C#||---0-0---9-7-0---0-0-0-0--9-9--7-7--0-0---9-7-0---0-0-0-0--9-9--7-7---| 
PM:    * *       *   * * * *            * *       *   * * * * 

D#||---------------------------------------| 
A#||---------------------------------------| 
F#||---------------------------------------| 
C#||---5-5-5-5-5-5-5-5---7-7-7-7-7-7-7-7---| 
G#||---5-5-5-5-5-5-5-5---7-7-7-7-7-7-7-7---| 
C#||---5-5-5-5-5-5-5-5---7-7-7-7-7-7-7-7---| 

D#||----------------------------------------------------------------------| 
A#||----------------------------------------------------------------------| 
F#||----------------------------------------------------------------------| 
C#||---0-0---9-7-0---0-0-0-0--9-9--7-7--0-0---9-7-0---0-0-0-0--9-9--7-7---| 
G#||---0-0---9-7-0---0-0-0-0--9-9--7-7--0-0---9-7-0---0-0-0-0--9-9--7-7---| 
C#||---0-0---9-7-0---0-0-0-0--9-9--7-7--0-0---9-7-0---0-0-0-0--9-9--7-7---| 
PM:    * *       *   * * * *            * *       *   * * * * 

D#||-------------------------------------------------------------------------| 
A#||-------------------------------------------------------------------------| 
F#||-------------------------------------------------------------------------| 
C#||---5-5-5-5-5-5-5-5---7-7-7-7-7-7-7-7----4--4-4-4-4-4-4-4-4-4-4-4-4-4-4---| 
G#||---5-5-5-5-5-5-5-5---7-7-7-7-7-7-7-7----4--4-4-4-4-4-4-4-4-4-4-4-4-4-4---| 
C#||---5-5-5-5-5-5-5-5---7-7-7-7-7-7-7-7----4--4-4-4-4-4-4-4-4-4-4-4-4-4-4---| 
PM:                                            * * * * * * * * 


-Repeat Chorus-  
		  

See also:

tabs Van Halen - Jump tabs The Doors - Roadhouse Blues tabs John Mayer - Belief tabs The Doors - People Are Strange tabs Guns N' Roses - Sweet Child o' mine tabs Aerosmith - Dream On
e-chords

Other versions:

tabs Joe Satriani - Memories tabs Yngwie Malmsteen - Memories tabs Manic Drive - Memories tabs Marcelo Barbosa - Memories tabs We Came As Romans - Memories tabs New Found Glory - Memories And Battle Scars
auto scroll beats size up size down change color hide chords drawings
tab show chords e-chords YouTube Clip e-chords hide all tabs e-chords go to top tab

share