Manic Drive

Memories

Manic Drive

tabs

by  LINEKERS

save to print version add songbook text version e-mail correct tuner
chordsukulelecavacokeyboardtabbassdrumsharmonicaflute Guitar Pro
close

there isn't a video lesson for this song

chords

Memories

	  		(Intro) 

Clean + delay + Chorus: 


E|------------------------------------------------------------------| 
B|------------------------------------------------------------------| 
G|--------------------------5-------9-------5--------9-------5------| 
D|------9-----5-----9-----5-------9-------5--------9-------5--------| 
A|----7-----3-----7-----3-------7-------3-------7--------3----------| 
D|--7-----3-----7-----3-------7-------3-------7--------3------------| 


(Verse) 


E|------------------------------------------------------------------| 
B|------------------------------------------------------------------| 
G|--------------------------5-------9-------5-------9--------5------| 
D|------9-----5-----9-----5-------9-------5-------9--------5--------| 
A|----7-----3-----7-----3-------7-------3-------7--------3----------| 
D|--7-----3-----7-----3-------7-------3-------7--------3------------| 

(Pre-Chorus) 

Distortion: 

E|-------------------------------------| 
B|-------------------------------------| 
G|-------------------------------------| 
D|--3-3--3-3--3-3--7-7--7-7--7-7-------|  x4 
A|--3-3--3-3--3-3--7-7--7-7--7-7-------| 
D|--3-3--3-3--3-3--7-7--7-7--7-7-------| 

(I will give all I have because of Your sacrifice...) 

(Chorus) 


E|-----------------------------------------------------| 
B|-----------------------------------------------------| 
G|-----------------------------------------------------| 
D|--10-x-x-10-10--5-x-x-5-5--0-x-0-0--3-3-3--5-5-5-----|  X2 
A|--10-x-x-10-10--5-x-x-5-5--0-x-0-0--3-3-3--5-5-5-----| 
D|--10-x-x-10-10--5-x-x-5-5--0-x-0-0--3-3-3--5-5-5-----| 

(Though my memories may slowly slip away...) 

					(VERSE2) 


Clean + delay + Chorus: 

E|-----------------------------------------------------------------| 
B|-----------------------------------------------------------------| 
G|--------9-----5-----9-----5------9-------5-------9--------5------| 
D|------9-----5-----9-----5------9-------5-------9--------5--------| 
A|----7-----3-----7-----3------7-------3-------7--------3----------| 
D|--7-----3-----7-----3------7-------3-------7--------3------------| 


(Pre-Chorus) 

Distortion: 

E|-------------------------------------| 
B|-------------------------------------| 
G|-------------------------------------| 
D|--3-3--3-3--3-3--7-7--7-7--7-7-------|  x4 
A|--3-3--3-3--3-3--7-7--7-7--7-7-------| 
D|--3-3--3-3--3-3--7-7--7-7--7-7-------| 

(I will give all I have because of Your sacrifice...) 

(Chorus) 


E|-----------------------------------------------------| 
B|-----------------------------------------------------| 
G|-----------------------------------------------------| 
D|--10-x-x-10-10--5-x-x-5-5--0-x-0-0--3-3-3--5-5-5-----|  X2 
A|--10-x-x-10-10--5-x-x-5-5--0-x-0-0--3-3-3--5-5-5-----| 
D|--10-x-x-10-10--5-x-x-5-5--0-x-0-0--3-3-3--5-5-5-----| 

(Though my memories may slowly slip away...) 

(BRIDGE) 


Light distortion: 


E|------------------------------------------------------------------| 
B|------------------------------------------------------------------| 
G|-10-x-x-10-10--12-12---14-x-x-14-14---7-x-x-7-7---5-5--5-5--5-5---| 
D|--x-x-x--x-x----x--x----x-x-x--x--x---x-x-x-x-x---x-x--x-x--x-x---| 
A|--8-x-x--8-8---10-10---12-x-x-12-12---5-x-x-5-5---3-3--3-3--3-3---| 
D|------------------------------------------------------------------| 

E|-----------------------------------------------------| 
B|-----------------------------------------------------| 
G|-10-x-x-10-10--12-12---14-x-x-14-14---7-x-x-7-7------| 
D|--x-x-x--x-x----x--x----x-x-x--x--x---x-x-x-x-x------| 
A|--8-x-x--8-8---10-10---12-x-x-12-12---5-x-x-5-5------| 
D|-----------------------------------------------------| 

Distortion: 

E|------------------------| 
B|------------------------| 
G|------------------------| 
D|--3-3-x-x-3-3-x-x-3-3---| 
A|--3-3-x-x-3-3-x-x-3-3---| 
D|--3-3-x-x-3-3-x-x-3-3---| 

E|-------------------------------------------------------------------| 
B|-------------------------------------------------------------------| 
G|-------------------------------------------------------------------| 
D|--8-x-x-8-8--10-10--12-x-x-12-12--5-x-x-5-5--3-3-x-x-3-3-x-x-3-3---| 
A|--8-x-x-8-8--10-10--12-x-x-12-12--5-x-x-5-5--3-3-x-x-3-3-x-x-3-3---| 
D|--8-x-x-8-8--10-10--12-x-x-12-12--5-x-x-5-5--3-3-x-x-3-3-x-x-3-3---| 


(If I go astray, If I run away ...) 

(Chorus) 

Clean + Chorus: 

E|------------------------------------------------------| 
B|------------------------------------------------------| 
G|----------------------------7-------------------------| 
D|--------10---------5------7---7-------3--------5------| 
A|-----10----10----5---5--------------3---3----5---5----| 
D|--10-----------5--------0---------3--------5----------| 

E|------------------------------------| 
B|------------------------------------| 
G|----------------------------7-------| 
D|--------10---------5------7---7-----| 
A|-----10----10----5---5--------------| 
D|--10-----------5--------0-----------| 

Distortion: 

E|--------------------------------------------------------------------| 
B|--------------------------------------------------------------------| 
G|--------------------------------------------------------------------| 
D|--3-3-3--5-5-5-|-10-x-x-10-10--5-x-x-5-5--0-x-0-0--3-3-3--5-5-5-----|  X2 
A|--3-3-3--5-5-5-|-10-x-x-10-10--5-x-x-5-5--0-x-0-0--3-3-3--5-5-5-----| 
D|--3-3-3--5-5-5-|-10-x-x-10-10--5-x-x-5-5--0-x-0-0--3-3-3--5-5-5-----| 

         (Though my memories...) 


E|-------| 
B|-------| 
G|-------| 
D|--10---| 
A|--10---| 
D|--10---| 
		  

See also:

tabs Vineyard - Senhor Te Quero tabs Chris Tomlin - Holy Is The Lord tabs FFH - every now and then tabs Bleach - Chu-bura tabs Building 429 - Glory Defined (ver. 2) tabs Kutless - We Fall Down
e-chords

Other versions:

tabs Joe Satriani - Memories tabs Yngwie Malmsteen - Memories tabs Manic Drive - Memories tabs Marcelo Barbosa - Memories tabs We Came As Romans - Memories tabs New Found Glory - Memories And Battle Scars
auto scroll beats size up size down change color hide chords drawings
tab show chords e-chords YouTube Clip e-chords hide all tabs e-chords go to top tab

share