Lee Greenwood

God Bless The USA

Lee Greenwood

tabs Beginner beginner

save to print version add songbook text version e-mail correct tuner
chordsukulelecavacokeyboardtabbassdrumsharmonicaflute Guitar Pro
close

there isn't a video lesson for this song

chords

God Bless The USA

(Lee Greenwood)

	  		intro: 
 
gtr I 
let ring-----------------------------------------------------------------| 
|--------------------|---------3----------|--------------------|---------3----------| 
|--------3-------2---|-----0-----0--------|-------3-------2----|-----0--------------| 
|------2---2---2---2-|---0---0-----0------|-----2---2---2---2--|---0---0------------| 
|----0-------0-------|-0------------------|---0-------0--------|-0------------------| 
|--------------------|---------------0H2--|--------------------|--------------------| 
|--------------------|--------------------|--------------------|--------------------| 
 
verse: 
 
let ring--------------------------------------------------------------------------| 
|-------------0H2------------|---------------3------------|--3-----------0----------| 
|--------3----------3--------|---------3--------3---------|--------0--------0-------| 
|-----2-----2----------2-----|---0--------0--------0------|-----0-----0--------0----| 
|--0----------------------0--|------0-----------------0---|--2--------------------2-| 
|----------------------------|----------------------------|-------------------------| 
|----------------------------|----------------------------|-------------------------| 
 
let ring--------------------------------------------------------------------------| 
|-------------------------|---------------0H2--------------|------------------------| 
|-----------1--2--------2-|---------3----------3-----------|--------------2---------| 
|--------0-----------0----|------2-----2----------2--------|-----------2--------2---| 
|-----2-----------2-------|---0----------------------0H2---|-4-----4--------------4-| 
|--3-----------0----------|--------------------------------|-----4-----------4------| 
|-------------------------|--------------------------------|------------------------| 
 
let ring----------------------------------------------------------------------| 
|---------------------------|----------------------------|--------------------3-----| 
|--0--------------0---------|---3-----3--------3---------|--------0-----0-----0-----| 
|-----0-----0--------0------|---------------4--------4---|--0-----------0-----------| 
|--2-----------2--------2---|------4-----4--------4------|-----0-----0--------------| 
|--------2------------------|---2------------------------|--------------------------| 
|---------------------------|----------------------------|--3-----------------------| 
 
 
chorus: 
 
let ring----------------------------------------------------------------------| 
|--------------------------|--3-----3--3--2-----2--2--|-----------------------------| 
|--2-----------2-----------|--3-----3--3--3-----3--3--|--2-----------2--------------| 
|--2-----2-----------2-----|--0-----0--0--2-----2--2--|--2-----2-----------2--------| 
|--2--2-----2-----------2--|--0-----0--0--0-----0--0--|--2--2-----2-----------2-----| 
|--4--------------4--------|--2-----2--2--------------|--4--------------4-----------| 
|--------------------------|--------------------------|-----------------------------| 
| 
| 
|gtr II 
| 
|--0-----------------------|--------1-----------1-----|--0--------------------------| 
|--1-----------------------|-----1-----------1--------|--1--------------------------| 
|--0-----------------------|--3--------3--2--------3--|--0--------------------------| 
|--2-----------------------|--------------------------|--2--------------------------| 
|--------------------------|--------------------------|-----------------------------| 
|--------------------------|--------------------------|-----------------------------| 
 
let ring----------------------------------------------------------------------| 
|--3-----3--3--3-----3-----|--2-----2--------2---2--2-|--3-----3--3--2-----2--2-----| 
|--3-----3--3--2-----2-----|--3-----3--------3---3--3-|--3-----3--3--3-----3--3-----| 
|--0-----0--0--3-----3-----|--4-----3--------2---2--2-|--0-----0--0--2-----2--2-----| 
|--0-----0--0--0-----0-----|--4-----0--------0---0--0-|--0-----0--0--0-----0--0-----| 
|--2-----2--2--------------|--2--------------X---X--X-|--2-----2--2--X-----X--X-----| 
|--------------------------|-----------------2---2--2-|--3-----3--3--2-----2--2-----| 
| 
| 
| 
| 
|--------1-----1-----------|--------------------------|-----------------------------| 
|-----1--------1-----------|--------------------------|-----------------------------| 
|--3-----------2-----------|--------------------------|-----------------------------| 
|--------------------------|--0-----3-----------------|-----------------------------| 
|-----------------0--1--3--|-----------------0------0-|--1----1--0------------0-----| 
|--------------------------|-----------1--3-----------|-----------------------------| 
 
let ring-----------------------------------------------------------------------| 
|--0-----0--0--2-----2--2--|--2-----2--2--3-----0-----|-----------------------------| 
|--0-----0--0--3-----3--3--|--3-----3--3--3-----2-----|---------3-----------2-------| 
|--0-----0--0--2-----2--2--|--2-----2--2--0-----2-----|------2-----2-----2-----2----| 
|--2-----2--2--0-----0--0--|--0-----0--0--0-----2-----|---0-----------0-------------| 
|--2-----2--2--X-----X--X--|--X-----X--X--2-----0-----|-----------------------------| 
|--0-----0--0--2-----2--2--|--2-----2--2--3-----------|-----------------------------| 
| 
| 
| 
| 
|--------------------------|--1-----------------------|-----------------------------| 
|--------3-----1-----------|-----1--------3-----------|---1-------------------------| 
|-----3-----3--------2-----|--------2-----3-----3-----|---X-------------------------| 
|--5--------------3--------|--------------3-----X-----|---3-------------------------| 
|--------------0--------0--|--0--------0--1-----3-----|-----------------------------| 
|--------------------------|--------------------------|-----------------------------|
		  

auto scroll beats size up size down change color hide chords drawings
tab show chords e-chords YouTube Clip e-chords hide all tabs e-chords go to top tab

share