Kids In The Way

We Are

Kids In The Way

tabs

by  MNUNES3219

save to print version add songbook text version e-mail correct tuner
chordsukulelecavacokeyboardtabbassdrumsharmonicaflute Guitar Pro
close

there isn't a video lesson for this song

chords

We Are

	  		Kids In The Way - We Are 
Tabbed By: mnunes321 
email: [email protected] 
 
intro(2x) 
guitar 1 & 2 
e------------------------------------------------------------- 
b------------------------------------------------------------- 
g------------------------------------------------------------- 
d-8-8--8-8--8-8--8-8--8-8-8----------4-4--4-4--4-4--4-4--4-4-4 
a-8-8--8-8--8-8--8-8--8-8-8----------4-4--4-4--4-4--4-4--4-4-4 
e-6-6--6-6--6-6--6-6--6-6-6----------2-2--2-2--2-2--2-2--2-2-2 
 
verse 1 
guitar 1 
e--------------------------------------------------------- 
b--------------------------------------------------------- 
g--------------------------------------------------------- 
d-8-8-8-8-8-8-8-8-8-8-8-6-6-6-4-4-4-4-4-4-4-4-4-4-4-6-6-6- 
a-8-8-8-8-8-8-8-8-8-8-8-6-6-6-4-4-4-4-4-4-4-4-4-4-4-6-6-6- 
e-6-6-6-6-6-6-6-6-6-6-6-4-4-4-2-2-2-2-2-2-2-2-2-2-2-4-4-4- 
 
guitar 2 
e--------------------------------------------------------- 
b--------------------------------------------------------- 
g--------------------------------------------------------- 
d-8~~~~~~~~~~~~~~~~~~~~~6~~~~~4~~~~~~~~~~~~~~~~~~~~~6~~~~~ 
a-8~~~~~~~~~~~~~~~~~~~~~6~~~~~4~~~~~~~~~~~~~~~~~~~~~6~~~~~ 
e-6~~~~~~~~~~~~~~~~~~~~~4~~~~~2~~~~~~~~~~~~~~~~~~~~~4~~~~~ 
 
Chorus(4x) 
guitar 1 & 2 
e-------------------------------- 
b-------------------------------- 
g-------------------------------- 
d-8-8-8-8-8-8-8-8-4-4-4-4-4-4-4-4 
a-8-8-8-8-8-8-8-8-4-4-4-4-4-4-4-4 
e-6-6-6-6-6-6-6-6-2-2-2-2-2-2-2-2 
 
verse 2(3x) 
guitar 1 
e-b13---14-13------------------------------ 
b------------b14---13h14-b13--------------- 
g------------------------------------------ 
d------------------------------------------ 
a------------------------------------------ 
e------------------------------------------ 
    
guitar 2 
e--------------------------------------------------------- 
b--------------------------------------------------------- 
g--------------------------------------------------------- 
d-8-8-8-8-8-8-8-8-8-8-8-6-6-6-4-4-4-4-4-4-4-4-4-4-4-6-6-6- 
a-8-8-8-8-8-8-8-8-8-8-8-6-6-6-4-4-4-4-4-4-4-4-4-4-4-6-6-6- 
e-6-6-6-6-6-6-6-6-6-6-6-4-4-4-2-2-2-2-2-2-2-2-2-2-2-4-4-4- 
 
Chorus(4x) 
guitar 1 & 2 
e-------------------------------- 
b-------------------------------- 
g-------------------------------- 
d-8-8-8-8-8-8-8-8-4-4-4-4-4-4-4-4 
a-8-8-8-8-8-8-8-8-4-4-4-4-4-4-4-4 
e-6-6-6-6-6-6-6-6-2-2-2-2-2-2-2-2 
 
bridge 
e---------------------------------------------------------------- 
b---------------------------------------------------------------- 
g-6-6-6-6-6-6-6-6-6-6-6-6-6-8-8-8-------------------------------- 
d-6-6-6-6-6-6-6-6-6-6-6-6-6-8-8-8-8-8-8-8-8-8-8-8-7-7-7-7-7-7-7-7 
a-4-4-4-4-4-4-4-4-4-4-4-4-4-6-6-6-8-8-8-8-8-8-8-8-7-7-7-7-7-7-7-7 
e---------------------------------6-6-6-6-6-6-6-6-5-5-5-5-5-5-5-5 
 
e---------------------------------------------------------------- 
b---------------------------------------------------------------- 
g-6-6-6-6-6-6-6-6-6-6-6-6-6-8-8-8-------------------------------- 
d-6-6-6-6-6-6-6-6-6-6-6-6-6-8-8-8-8-8-8-8-8-8-8-8-7-------------- 
a-4-4-4-4-4-4-4-4-4-4-4-4-4-6-6-6-8-8-8-8-8-8-8-8-7-------------- 
e---------------------------------6-6-6-6-6-6-6-6-5-------------- 
 
Chorus(8x) 
guitar 1 & 2 
e-------------------------------- 
b-------------------------------- 
g-------------------------------- 
d-8-8-8-8-8-8-8-8-4-4-4-4-4-4-4-4 
a-8-8-8-8-8-8-8-8-4-4-4-4-4-4-4-4 
e-6-6-6-6-6-6-6-6-2-2-2-2-2-2-2-2 
 
Outro 
guitar 1 & 2 
e----------------- 
b----------------- 
g----------------- 
d-4-4--4-4--4-6-8- 
a-4-4--4-4--4-6-8- 
e-2-2--2-2--2-4-6- 
 
order= intro 
       verse 1 
       Chorus 
       verse 2 
       Chorus 
       bridge 
       Chorus 
       outro 
 
 
 

		  

See also:

tabs Blink 182 - Carousel tabs Blink 182 - Stay Together 4 the Kids tabs Green Day - Jesus of Suburbia tabs Goo Goo Dolls - Iris (Acoustic) tabs Blink 182 - What´s My Age Again ? tabs Green Day - Wake Me Up When September Ends
e-chords

Other versions:

tabs Kids In The Way - We Are tabs Thousand Foot Krutch - We Are tabs Hollywood Undead - We Are tabs Dope - We Are tabs Misfits - We Are 138 tabs A.C.A.B - We Are Acab
auto scroll beats size up size down change color hide chords drawings
tab show chords e-chords YouTube Clip e-chords hide all tabs e-chords go to top tab

share