Green Day

home > Green Day

Boulevard of Broken Dreams Tab

Green Day

Difficulty: BeginnerBeginner

by eduardo%5Flyvio

tuner correct add songbook print version text version save to e-mail
chordsukulelecavacokeyboardtabbassdrumsharmonicsflute Guitar Pro
chords

Boulevard of Broken Dreams

Year: 2004 - Album: American Idiot

(Billie Joe Armstrong)

	  Intro: (Delay pedal) Fm  Ab  Eb  Bb 
 
Verse 1: 
Fm          Ab 
I walk a lonely road  
    Eb                    Bb 
The only one that I have ever known  
Fm          Ab 
Don't know were it goes  
    Eb                    Bb 
But it's home to me and I walk alone  
 
   Fm   Ab     Eb   Bb 
E--3/4--6/8\6--3--4-- 
B-------------------- 
G-------------------- 
D-------------------- 
A-------------------- 
E-------------------- 
 
Fm          Ab 
I walk this empty street  
    Eb                    Bb 
On the Boulevard of broken dreams  
Fm          Ab 
Were the city sleeps  
    Eb                    Bb 
And I'm the only one and I walk alone 
 
 
Pre-Chorus: 
 
   Fm   Ab     Eb   Bb     Fm   Ab     Eb   Bb 
E--3/4--6/8\6--3--4---------3/4--6/8\6--3--4-- 
B--------------------------------------------- 
G--------------------------------------------- 
D--------------------------------------------- 
A--------------------------------------------- 
E--------------------------------------------- 
I walk alone I walk alone, I walk alone and I walk a- 
 
 
Chorus: 
C#      Ab       Bb            F 
My shadows the only one that walks beside me  
C#      Ab       Bb            F 
My shallow hearts the only thing that's beating  
C#      Ab       Bb            F 
Sometimes I wish someone out there will find me 
C#      Ab       C 
'Till then I'll walk alone  
 
 
Fm  Ab  Eb  Bb  (repeat 2x) 
Ah..ah.. 
 
 
Verse 2: 
Fm          Ab 
I'm walking down the line 
Eb                  Bb 
That divides me somewhere in my mind  
Fm        Ab        Eb 
On the border line of the edge  
     Bb 
And where I walk alone  
 
   Fm   Ab     Eb   Bb 
E--3/4--6/8\6--3--4-- 
B-------------------- 
G-------------------- 
D-------------------- 
A-------------------- 
E-------------------- 
 
Fm          Ab 
Read between the lines 
Eb                  Bb 
What's fucked up and everything's alright  
   
Fm        Ab             Eb            Bb 
Check my vital signs to know I'm still alive  
 
And I walk alone 
 
 
Pre-Chorus: 
 
   Fm   Ab     Eb   Bb     Fm   Ab     Eb   Bb 
E--------------------------------------------- 
B--3/4--6/8\6--3--4---------3/4--6/8\6--3--4-- 
G--------------------------------------------- 
D--------------------------------------------- 
A--------------------------------------------- 
E--------------------------------------------- 
I walk alone I walk alone, I walk alone and I walk a- 
 
 
Chorus: 
C#      Ab       Bb            F 
My shadows the only one that walks beside me  
C#      Ab       Bb            F 
My shallow hearts the only thing that's beating  
C#      Ab       Bb            F 
Sometimes I wish someone out there will find me 
C#      Ab       C 
'Till then I'll walk alone  
 
 
Fm  Ab  Eb  Bb  (repeat 2x) 
Ah..ah.. 
I walk alone and I walk a- 
 
Solo: 
E--------------------8~-------------------------8~---------------| 
B----------6-6--8-9~----11~-8-9~~-----6-6--8-9~----11~-8-9~~-----| 
G----------------------------------------------------------------| 
D----------------------------------------------------------------| 
A--12\5p0--------------------------------------------------------| 
E----------------------------------------------------------------| 
 
E------------8~-------------------------8~---------------| 
B--6-6--8-9~----11~-8-9~~-----6-6--8-9~----11/13--11-13~~| 
G--------------------------------------------------------| 
D--------------------------------------------------------| 
A--------------------------------------------------------| 
E--------------------------------------------------------| 
 
 
Verse 3: 
Fm          Ab 
I walk this empty street  
    Eb                    Bb 
On the Boulevard of broken dreams  
Fm          Ab 
Were the city sleeps  
    Eb                    Bb 
And I'm the only one and I walk alone 
 
 
Chorus: 
C#      Ab       Bb            F 
My shadows the only one that walks beside me  
C#      Ab       Bb            F 
My shallow hearts the only thing that's beating  
C#      Ab       Bb            F 
Sometimes I wish someone out there will find me 
C#      Ab       C 
'Till then I'll walk alone  
 
 
Outro: 
   F       C#      Eb      D       Ab      E   
E--------------------------------------------------| 
B--------------------------------------------------| 
G--------------------------------------------------|  (repeat 3x) 
D--------------------------------------------------| 
A----------4--4-4--6--6-6--5--5-5------------------| 
E--1--1-1--------------------------4--4-4--0--0-0--| 
 
   F       C#      Eb      D       Ab   E   
E--------------------------------------------------| 
B--------------------------------------------------| 
G--------------------------------------------------| 
D----------------------------------5-5--2-2--------| 
A----------4--4-4--6--6-6--5--5-5--5-5--2-2--------| 
E--1--1-1--------------------------4-4--0-0--------| 
 
 
 

	  

how-to-play-boulevard-of-broken-dreams-acoustic Play

there is a video lesson for this song

view more
Full key step upFull key step up
Half key step upHalf key step up
Half key step downHalf key step down
Full key step downFull key step down
Search
auto scroll beats size up size down change color hide chords drawings
tab show chords e-chords YouTube Clip e-chords hide all tabs e-chords go to top tab