Fall Out Boy

Sugar, We're Going Down

Fall Out Boy

tabs Beginner beginner

by  MADMAN1133

save to print version add songbook text version e-mail correct tuner
chordsukulelecavacokeyboardtabbassdrumsharmonicaflute Guitar Pro
close

there isn't a video lesson for this song

chords

Sugar, We're Going Down

	  		intro: 
 
guitar 1 
 
e----------------------------------- 
b----------------------------------- 
g--7---4----------------------------   x2 
d--7-5-4-5-------------------------- 
a--5-5-2-5-------------------------- 
e----3---3-------------------------- 
 
guitar 2 
 
e----------------------------------- 
b----------------------------------- 
g--7-7-7-7-------------------------- 
d--7-5-7-5-------------------------- 
a--5----5--------------------------- 
e----------------------------------- 
 
then 
 
e-------------------------------------- 
b-------------------------------------- 
g--11-9-12-9-11-9-12-9-11-9-12-9-11-9-7 
d-------------------------------------- 
a-------------------------------------- 
e-------------------------------------- 
 
verse: 
 
bass notes on d, g, b, g goes for one measure 
 
then muted for one measure, you play this: 
 
e----------------------------------- 
b----------------------------------- 
g--7---4---------------------------- 
d--7-5-4-5-------------------------- 
a--5-5-2-5-------------------------- 
e----3---3-------------------------- 
 
pre-Chorus: 
 
e----------------------------------- 
b----------------------------------- 
g----------------------------------- 
d--5-5-7-9-10-9-5------------------- 
a--5-5-7-9-10-9-5------------------- 
e--3-3-5-7-8--7-3------------------- 
 
Chorus: 
 
guitar 1 
 
e----------------------------------- 
b----------------------------------- 
g--7---4----------------------------   x2 
d--7-5-4-5-------------------------- 
a--5-5-2-5-------------------------- 
e----3---3-------------------------- 
 
guitar 2 
 
e----------------------------------- 
b----------------------------------- 
g--7-7-7-7-------------------------- 
d--7-5-7-5--------------------------   x2 
a--5----5--------------------------- 
e----------------------------------- 
 
pre-Chorus 
 
verse 
 
pre-Chorus 
 
Chorus 
 
right after the Chorus, play the intro but with a g chord first 
 
Chorus 
 
then this: 
 
guitar 1 
 
e---------------------------------- 
b----------------------------------- 
g----7------------------------------ 
d--5-7------------------------------ 
a--5-5------------------------------ 
e--3-------------------------------- 
 
guitar 2 
 
e-------------------------------------- 
b-------------------------------------- 
g--11-9-12-9-11-9-12-9-11-9-12-9-11-9-7 
d-------------------------------------- 
a-------------------------------------- 
e-------------------------------------- 
 
 

		  

See also:

tabs Blink 182 - Anthem Part II tabs Blink 182 - I Miss You (ver. 2) tabs Green Day - All by myself tabs Bad Religion - American Jesus tabs Blink 182 - Always tabs Blink 182 - I Miss You
e-chords

Other versions:

tabs Fall Out Boy - Sugar were going down tabs Fall Out Boy - Sugar we`re going down tabs Fall Out Boy - Sugar, We're Going Down tabs Fall Out Boy - Sugar, We're Going Down- Real Version
auto scroll beats size up size down change color hide chords drawings
tab show chords e-chords YouTube Clip e-chords hide all tabs e-chords go to top tab

share