Hollywood Undead

We Are

Hollywood Undead

tabs Expert expert

by  FERNSANTANA

save to print version add songbook text version e-mail correct tuner
chordsukulelecavacokeyboardtabbassdrumsharmonicaflute Guitar Pro
close

there isn't a video lesson for this song

chords

We Are

	  		

Tuning: C#   G#   C#   F#   A#   D#  


Guitar 1 

                                                          
E||-------------------|-------|----------------------------------| 
B||-------------------|-------|--10--L--10--L---11----L--11---L--| 
G||-------------------|-------|------7---L--7--(10)--10---L--10--| 
D||-------------------|-------|----------------------------------| 
A||-------------------|-------|----------------------------------| 
D||-------------------|-------|----------------------------------| 


                                                  
-----------------------------|----------------------------------| 
---8---L--8--L--10-----8-----|--10--L--10--L---11----L--11---L--| 
--(5)--5--L--5------7-----7--|------7---L--7--(10)--10---L--10--| 
-----------------------------|----------------------------------| 
-----------------------------|----------------------------------| 
-----------------------------|----------------------------------| 


                                           
-------------------------------|--------------------------| 
---8---L--8--L--8--------------|--------------------------| 
--(5)--5--L--5--L-----x--x-----|--------------------------| 
----------------------x--x-----|--0--0--0--0--3--3--3--3--| 
----------------------x--x-----|--0--0--0--0--3--3--3--3--| 
-------------------------------|--0--0--0--0--3--3--3--3--| 


                                       
--------------------------|--------------------------| 
--------------------------|--------------------------| 
--5--5--5--5--------------|--------------------------| 
--5--5--5--5--------------|--0--0--0--0--3--3--3--3--| 
--3--3--3--3--------------|--0--0--0--0--3--3--3--3--| 
--------------5--5--5--5--|--0--0--0--0--3--3--3--3--| 


                                       
--------------------------|--------------------------| 
--------------------------|--------------------------| 
--5--5--5--5--------------|--------------------------| 
--5--5--5--5--------------|--0--0--0--0--3--3--3--3--| 
--3--3--3--3--------------|--0--0--0--0--3--3--3--3--| 
--------------5--5--5--5--|--0--0--0--0--3--3--3--3--| 


                                                          
--------------------------|--------------------------|-----------------------| 
--------------------------|--------------------------|-----------------------| 
--5--5--5--5--------------|--------------------------|--5--5--5--5-----------| 
--5--5--5--5--5--5--5--5--|--0--0--0--0--3--3--3--3--|--5--5--5--5-----------| 
--3--3--3--3--5--5--5--5--|--0--0--0--0--3--3--3--3--|--3--3--3--3-----------| 
--------------5--5--5--5--|--0--0--0--0--3--3--3--3--|--------------5--------| 


                                                            
---------------------|-------------------|---------------------| 
-----------10--------|--8----------------|-----------10--------| 
--7---------L--------|--L----------------|--7---------L--------| 
---------------------|-------------------|---------------------| 
---------------------|-------------------|---------------------| 
---------------------|-------------------|---------------------| 


                                                           
-------------------|---------------------|-------------------| 
--8----------------|-----------10--------|--8----------------| 
--L----------------|--7---------L--------|--L----------------| 
-------------------|---------------------|-------------------| 
-------------------|---------------------|-------------------| 
-------------------|---------------------|-------------------| 


                                                            
---------------------|--------------------|---------------------| 
-----------10--------|--8-----------------|-----------10--------| 
--7---------L--------|--L-----------------|--7---------L--------| 
---------------------|--------------------|---------------------| 
---------------------|--------------------|---------------------| 
---------------------|--------------------|---------------------| 


                                                           
-------------------|---------------------|-------------------| 
--8----------------|-----------10--------|--8----------------| 
--L----------------|--7---------L--------|--L----------------| 
-------------------|---------------------|-------------------| 
-------------------|---------------------|-------------------| 
-------------------|---------------------|-------------------| 


                                                             
---------------------|-------------------|----------------------------| 
-----------10--------|--8----------------|----------------8-----8-----| 
--7---------L--------|--L----------------|--10--7--10--7-----7-----7--| 
---------------------|-------------------|----------------------------| 
---------------------|-------------------|----------------------------| 
---------------------|-------------------|----------------------------| 


                                         
-----------------------------|--------------------------| 
--10-----10------------------|--------------------------| 
------7----------------------|--------------------------| 
-----------------------------|--0--0--0--0--3--3--3--3--| 
-----------------------------|--0--0--0--0--3--3--3--3--| 
-------------5-7-8--7--5--3--|--0--0--0--0--3--3--3--3--| 


                                       
--------------------------|--------------------------| 
--------------------------|--------------------------| 
--5--5--5--5--------------|--------------------------| 
--5--5--5--5--------------|--0--0--0--0--3--3--3--3--| 
--3--3--3--3--------------|--0--0--0--0--3--3--3--3--| 
--------------5--5--5--5--|--0--0--0--0--3--3--3--3--| 


                                       
--------------------------|--------------------------| 
--------------------------|--------------------------| 
--5--5--5--5--------------|--------------------------| 
--5--5--5--5--------------|--0--0--0--0--3--3--3--3--| 
--3--3--3--3--------------|--0--0--0--0--3--3--3--3--| 
--------------5--5--5--5--|--0--0--0--0--3--3--3--3--| 


                                                          
--------------------------|--------------------------|-----------------------| 
--------------------------|--------------------------|-----------------------| 
--5--5--5--5--------------|--------------------------|--5--5--5--5-----------| 
--5--5--5--5--5--5--5--5--|--0--0--0--0--3--3--3--3--|--5--5--5--5-----------| 
--3--3--3--3--5--5--5--5--|--0--0--0--0--3--3--3--3--|--3--3--3--3-----------| 
--------------5--5--5--5--|--0--0--0--0--3--3--3--3--|--------------5--------| 


                                                            
---------------------|-------------------|---------------------| 
-----------10--------|--8----------------|-----------10--------| 
--7---------L--------|--L----------------|--7---------L--------| 
---------------------|-------------------|---------------------| 
---------------------|-------------------|---------------------| 
---------------------|-------------------|---------------------| 


                                                           
-------------------|---------------------|-------------------| 
--8----------------|-----------10--------|--8----------------| 
--L----------------|--7---------L--------|--L----------------| 
-------------------|---------------------|-------------------| 
-------------------|---------------------|-------------------| 
-------------------|---------------------|-------------------| 


                                                             
---------------------|-----------------------|----------------------------| 
-----------10--------|--8--------------------|----------------8-----8-----| 
--7---------L--------|--L--------------------|--10--7--10--7-----7-----7--| 
---------------------|-----------8--7--5--3--|----------------------------| 
---------------------|-----------------------|----------------------------| 
---------------------|-----------------------|----------------------------| 


                                           
----------------------------|----------------------------| 
--10-----10-----------------|----------------8-----8-----| 
------7------7--------------|--10--7--10--7-----7-----7--| 
----------------8--7--5--3--|----------------------------| 
----------------------------|----------------------------| 
----------------------------|----------------------------| 


                                           
----------------------------|----------------------------| 
--10-----10-----------------|----------------8-----8-----| 
------7------7--------------|--10--7--10--7-----7-----7--| 
----------------8--7--5--3--|----------------------------| 
----------------------------|----------------------------| 
----------------------------|----------------------------| 


                                           
----------------------------|----------------------------| 
--10-----10-----------------|----------------8-----8-----| 
------7------7--------------|--10--7--10--7-----7-----7--| 
----------------8--7--5--3--|----------------------------| 
----------------------------|----------------------------| 
----------------------------|----------------------------| 


                                         
-----------------------------|--------------------------| 
--10-----10------------------|--------------------------| 
------7----------------------|--------------------------| 
-----------------------------|--0--0--0--0--3--3--3--3--| 
-----------------------------|--0--0--0--0--3--3--3--3--| 
-------------5-7-8--7--5--3--|--0--0--0--0--3--3--3--3--| 


                                       
--------------------------|--------------------------| 
--------------------------|--------------------------| 
--5--5--5--5--------------|--------------------------| 
--5--5--5--5--------------|--0--0--0--0--3--3--3--3--| 
--3--3--3--3--------------|--0--0--0--0--3--3--3--3--| 
--------------5--5--5--5--|--0--0--0--0--3--3--3--3--| 


                                       
--------------------------|--------------------------| 
--------------------------|--------------------------| 
--5--5--5--5--------------|--------------------------| 
--5--5--5--5--------------|--0--0--0--0--3--3--3--3--| 
--3--3--3--3--------------|--0--0--0--0--3--3--3--3--| 
--------------5--5--5--5--|--0--0--0--0--3--3--3--3--| 


                                                          
--------------------------|--------------------------|-----------------------| 
--------------------------|--------------------------|-----------------------| 
--5--5--5--5--------------|--------------------------|--5--5--5--5-----------| 
--5--5--5--5--5--5--5--5--|--0--0--0--0--3--3--3--3--|--5--5--5--5-----------| 
--3--3--3--3--5--5--5--5--|--0--0--0--0--3--3--3--3--|--3--3--3--3-----------| 
--------------5--5--5--5--|--0--0--0--0--3--3--3--3--|--------------5--------| 


                                                          
-------------------|-------------------|-----------8--------| 
-------------------|-------------------|--------------------| 
-------------------|-------------------|--7-----------------| 
--0----------------|--L----------------|--------------------| 
--0----------------|--L----------------|--------------------| 
--0----------------|--L----------------|--------------------| 


                                                                 
----------------------|--------------------|-------------------------------| 
--10--------11--------|-----------8--------|-----------8-10-11--10--8------| 
----------------------|--7-----------------|--10----L------------------10--| 
----------------------|--------------------|-------------------------------| 
----------------------|--------------------|-------------------------------| 
----------------------|--------------------|-------------------------------| 


                                                        
                                             
-----|-----------------------|--------------------------| 
-----|----------------x-x----|--------------------------| 
-----|----------------x-x----|--------------------------| 
-----|----------------x-x-0--|--0--0--0--0--3--3--3--3--| 
-----|--------------------0--|--0--0--0--0--3--3--3--3--| 
-----|--------------------0--|--0--0--0--0--3--3--3--3--| 


                                       
--------------------------|--------------------------| 
--------------------------|--------------------------| 
--5--5--5--5--------------|--------------------------| 
--5--5--5--5--------------|--0--0--0--0--3--3--3--3--| 
--3--3--3--3--------------|--0--0--0--0--3--3--3--3--| 
--------------5--5--5--5--|--0--0--0--0--3--3--3--3--| 


                                       
--------------------------|--------------------------| 
--------------------------|--------------------------| 
--5--5--5--5--------------|--------------------------| 
--5--5--5--5--5--5--5--5--|--0--0--0--0--3--3--3--3--| 
--3--3--3--3--5--5--5--5--|--0--0--0--0--3--3--3--3--| 
--------------5--5--5--5--|--0--0--0--0--3--3--3--3--| 


                                       
--------------------------|--------------------------| 
--------------------------|--------------------------| 
--5--5--5--5--------------|--------------------------| 
--5--5--5--5--------------|--0--0--0--0--3--3--3--3--| 
--3--3--3--3--------------|--0--0--0--0--3--3--3--3--| 
--------------5--5--5--5--|--0--0--0--0--3--3--3--3--| 


                                       
--------------------------|--------------------------| 
--------------------------|--------------------------| 
--5--5--5--5--------------|--------------------------| 
--5--5--5--5--5--5--5--5--|--0--0--0--0--3--3--3--3--| 
--3--3--3--3--5--5--5--5--|--0--0--0--0--3--3--3--3--| 
--------------5--5--5--5--|--0--0--0--0--3--3--3--3--| 


                                               
--------------------------|----------------------------------| 
--------------------------|--10--L--10--L---11----L--11---L--| 
--5--5--5--5--------------|------7---L--7--(10)--10---L--10--| 
--5--5--5--5--5--5--5--5--|----------------------------------| 
--3--3--3--3--5--5--5--5--|----------------------------------| 
--------------5--5--5--5--|----------------------------------| 


                                                  
-----------------------------|----------------------------------| 
---8---L--8--L--10-----8-----|--10--L--10--L---11----L--11---L--| 
--(5)--5--L--5------7-----7--|------7---L--7--(10)--10---L--10--| 
-----------------------------|----------------------------------| 
-----------------------------|----------------------------------| 
-----------------------------|----------------------------------| 


                                                
---------------------------------|--------------------------| 
---8---L--8--8-10-11--10--8------|--------------------------| 
--(5)--5--L------------------10--|--7--------12----L--10-12-| 
---------------------------------|--------------------------| 
---------------------------------|--------------------------| 
---------------------------------|--------------------------| 


                                             
-------------------------------|-------------------|| 
-----------8-10-11--10--8------|-------------------|| 
--10----L------------------10--|-------------------|| 
-------------------------------|-------------------|| 
-------------------------------|-------------------|| 
-------------------------------|-------------------|| 


Guitar 2 

      Echo Effect                                
                                        
E||--------------------------------------------| 
B||--15--------------15------15-15-----15------| 
G||--------------14------14--------14------14--| 
D||--------------------------------------------| 
A||--------------------------------------------| 
D||--------------------------------------------| 


                                                         
------------------------------------|------------------------------------| 
--15------15------15-15-----15------|--15------15------15-15-----15------| 
------14------14--------14------14--|------14------14--------14------14--| 
------------------------------------|------------------------------------| 
------------------------------------|------------------------------------| 
------------------------------------|------------------------------------| 


                                                         
------------------------------------|------------------------------------| 
--15------15------15-15-----15------|--15------15------15-15-----15------| 
------14------14--------14------14--|------14------14--------14------14--| 
------------------------------------|------------------------------------| 
------------------------------------|------------------------------------| 
------------------------------------|------------------------------------| 


                                                     
--------------------------------------|------------------------------| 
--15------15------(15)--------x-x-----|--10------------11------------| 
------14------14--------(14)--x-x-----|------7------7------7------7--| 
------------------------------x-x-----|---------10------------10-----| 
--------------------------------------|------------------------------| 
--------------------------------------|------------------------------| 


                                               
------------------------------|------------------------------| 
--8------------11--10--8------|--10------------11------------| 
-----7------7-------------10--|------7------7------7------7--| 
--------10--------------------|---------10------------10-----| 
------------------------------|------------------------------| 
------------------------------|------------------------------| 


                                               
------------------------------|------------------------------| 
--8------------11--10---------|--10------------11------------| 
-----7------7-----------------|------7------7------7------7--| 
--------10-------------10--7--|---------10------------10-----| 
------------------------------|------------------------------| 
------------------------------|------------------------------| 


                                               
------------------------------|------------------------------| 
--8------------11--10--8------|--10------------11------------| 
-----7------7-------------10--|------7------7------7------7--| 
--------10--------------------|---------10------------10-----| 
------------------------------|------------------------------| 
------------------------------|------------------------------| 


                                                         
------------------------|-----------|-----------|-----------| 
--8---------------------|-----------|-----------|-----------| 
-----7------7-----------|-----------|-----------|-----------| 
--------10--------------|-----------|-----------|-----------| 
------------------------|-----------|-----------|-----------| 
------------------------|-----------|-----------|-----------| 


                                                                        
-------------------------------|-----------|-----------|-----------|-----------| 
-----------8-10-11--10--8------|-----------|-----------|-----------|-----------| 
---------------------------10--|-----------|-----------|-----------|-----------| 
-------------------------------|-----------|-----------|-----------|-----------| 
-------------------------------|-----------|-----------|-----------|-----------| 
-------------------------------|-----------|-----------|-----------|-----------| 


                                       
--------------------------|--------------------------| 
--------------------------|--------------------------| 
-----7--5--7-----7--5--7--|-----7--5--7-----7--5-----| 
--------------------------|-----------------------7--| 
--------------------------|--------------------------| 
--------------------------|--------------------------| 


                                           
--------------------------|-------------------------------| 
--------------------------|-----------8-10-11--10--8------| 
-----7--5--7-----7--5--7--|-----7--5------------------10--| 
--------------------------|-------------------------------| 
--------------------------|-------------------------------| 
--------------------------|-------------------------------| 


                                                 
--------------------------|-------------------------------|-----| 
--------------------------|-----------8-10-11--10--8------|-----| 
-----7--5--7-----7--5--7--|-----7--5------------------10--|-----| 
--------------------------|-------------------------------|-----| 
--------------------------|-------------------------------|-----| 
--------------------------|-------------------------------|-----| 


                                               
-------------------------------|------------------------------| 
-----------8-10-11--10--8------|--10------------11------------| 
---------------------------10--|------7------7------7------7--| 
-------------------------------|---------10------------10-----| 
-------------------------------|------------------------------| 
-------------------------------|------------------------------| 


                                               
------------------------------|------------------------------| 
--8------------11--10--8------|--10------------11------------| 
-----7------7-------------10--|------7------7------7------7--| 
--------10--------------------|---------10------------10-----| 
------------------------------|------------------------------| 
------------------------------|------------------------------| 


                                               
------------------------------|------------------------------| 
--8------------11--10---------|--10------------11------------| 
-----7------7-----------------|------7------7------7------7--| 
--------10-------------10--7--|---------10------------10-----| 
------------------------------|------------------------------| 
------------------------------|------------------------------| 


                                               
------------------------------|------------------------------| 
--8------------11--10--8------|--10------------11------------| 
-----7------7-------------10--|------7------7------7------7--| 
--------10--------------------|---------10------------10-----| 
------------------------------|------------------------------| 
------------------------------|------------------------------| 


                                                         
------------------------|-----------|-----------|-----------| 
--8---------------------|-----------|-----------|-----------| 
-----7------7-----------|-----------|-----------|-----------| 
--------10--------------|-----------|-----------|-----------| 
------------------------|-----------|-----------|-----------| 
------------------------|-----------|-----------|-----------| 


                                                            
-------------------------------|-----------|-----------|-----------| 
-----------8-10-11--10--8------|-----------|-----------|-----------| 
---------------------------10--|-----------|-----------|-----------| 
-------------------------------|-----------|-----------|-----------| 
-------------------------------|-----------|-----------|-----------| 
-------------------------------|-----------|-----------|-----------| 


                                           
-------------------------------|--------------------------| 
-----------8-10-11--10--8------|--------------------------| 
---------------------------10--|-----7--5--7-----7--5--7--| 
-------------------------------|--------------------------| 
-------------------------------|--------------------------| 
-------------------------------|--------------------------| 


                                       
--------------------------|--------------------------| 
--------------------------|--------------------------| 
-----7--5--7-----7--5-----|-----7--5--7-----7--5--7--| 
-----------------------7--|--------------------------| 
--------------------------|--------------------------| 
--------------------------|--------------------------| 


                                           
-------------------------------|--------------------------| 
-----------8-10-11--10--8------|--------------------------| 
-----7--5------------------10--|-----7--5--7-----7--5--7--| 
-------------------------------|--------------------------| 
-------------------------------|--------------------------| 
-------------------------------|--------------------------| 


                                                 
--------------------------|-----|-------------------------------| 
--------------------------|-----|-----------8-10-11--10--8------| 
-----7--5--7-----7--5-----|-----|---------------------------10--| 
-----------------------7--|-----|-------------------------------| 
--------------------------|-----|-------------------------------| 
--------------------------|-----|-------------------------------| 


                                               
------------------------------|------------------------------| 
--10------------11------------|--8------------11--10--8------| 
------7------7------7------7--|-----7------7-------------10--| 
---------10------------10-----|--------10--------------------| 
------------------------------|------------------------------| 
------------------------------|------------------------------| 


                                               
------------------------------|------------------------------| 
--10------------11------------|--8------------11--10---------| 
------7------7------7------7--|-----7------7-----------------| 
---------10------------10-----|--------10-------------10--7--| 
------------------------------|------------------------------| 
------------------------------|------------------------------| 


                                               
------------------------------|------------------------------| 
--10------------11------------|--8------------11--10--8------| 
------7------7------7------7--|-----7------7-------------10--| 
---------10------------10-----|--------10--------------------| 
------------------------------|------------------------------| 
------------------------------|------------------------------| 


                                                               
------------------------------|------------------------|-------------------| 
--10------------11------------|--8---------------------|-------------------| 
------7------7------7------7--|-----7------7-----------|-------------------| 
---------10------------10-----|--------10--------------|--0----------------| 
------------------------------|------------------------|--0----------------| 
------------------------------|------------------------|--0----------------| 


                                                              
------------------------------|-------------------|-------------------| 
----------8-10-11--10--8------|-------------------|-------------------| 
--------------------------10--|-------------------|-------------------| 
--L----L----------------------|--0----------------|--L----------------| 
--L----L----------------------|--0----------------|--L----------------| 
--L----L----------------------|--0----------------|--L----------------| 


                                                              
-------------------|-------------------|------------------------------| 
-------------------|-------------------|--10------------11------------| 
-------------------|-------------------|------7------7------7------7--| 
--0----------------|--L----------------|---------10------------10-----| 
--0----------------|--L----------------|------------------------------| 
--0----------------|--L----------------|------------------------------| 


                                                             
                                              
------------------------------|------------------------------| 
--8------------11--10--x-x----|--10------------11------------| 
-----7------7----------x-x----|------7------7------7------7--| 
--------10-------------x-x-0--|---------10------------10-----| 
---------------------------0--|------------------------------| 
---------------------------0--|------------------------------| 


                                               
------------------------------|------------------------------| 
--8------------11--10---------|--10------------11------------| 
-----7------7-----------------|------7------7------7------7--| 
--------10-------------10--7--|---------10------------10-----| 
------------------------------|------------------------------| 
------------------------------|------------------------------| 


                                               
------------------------------|------------------------------| 
--8------------11--10--8------|--10------------11------------| 
-----7------7-------------10--|------7------7------7------7--| 
--------10--------------------|---------10------------10-----| 
------------------------------|------------------------------| 
------------------------------|------------------------------| 


                                                
--------------------------------|------------------------------| 
--8---------8-10-11--10--8------|--10------------11------------| 
-----7----------------------10--|------7------7------7------7--| 
--------10----------------------|---------10------------10-----| 
--------------------------------|------------------------------| 
--------------------------------|------------------------------| 


                                               
------------------------------|------------------------------| 
--8------------11--10--8------|--10------------11------------| 
-----7------7-------------10--|------7------7------7------7--| 
--------10--------------------|---------10------------10-----| 
------------------------------|------------------------------| 
------------------------------|------------------------------| 


                                                
--------------------------------|------------------------------| 
--8---------8-10-11--10--8------|--10------------11------------| 
-----7----------------------10--|------7------7------7------7--| 
--------10----------------------|---------10------------10-----| 
--------------------------------|------------------------------| 
--------------------------------|------------------------------| 


                                             
----------------------------|------------------------------| 
--8-------------------------|--10------------11------------| 
-----7------7--7--7---------|------7------7------7------7--| 
--------10-----------10--7--|---------10------------10-----| 
----------------------------|------------------------------| 
----------------------------|------------------------------| 


                                                              
------------------------------|--5----5----6----6----|----------------------| 
--8------------11--10--8------|--3----3----6----6----|--6----6----8----8----| 
-----7------7-------------10--|--2----2----5----5----|--5----5----7----7----| 
--------10--------------------|--0----0----3----3----|--5----5----5----5----| 
------------------------------|----------------------|--3----3--------------| 
------------------------------|----------------------|----------------------| 


                     
-------------------|| 
-------------------|| 
-------------------|| 
-------------------|| 
-------------------|| 
-------------------|| 
		  

See also:

tabs Red Hot Chili Peppers - Under the Bridge tabs Eye of the tiger - Eye of the tiger tabs Los Lonely Boys - Heaven tabs Red Hot Chili Peppers - Snow (hey oh) tabs Jeff Buckley - Hallelujah tabs Red Hot Chili Peppers - Venice Queen
e-chords

Other versions:

tabs Kids In The Way - We Are tabs Thousand Foot Krutch - We Are tabs Hollywood Undead - We Are tabs Dope - We Are tabs Misfits - We Are 138 tabs A.C.A.B - We Are Acab
auto scroll beats size up size down change color hide chords drawings
tab show chords e-chords YouTube Clip e-chords hide all tabs e-chords go to top tab

share