Thousand Foot Krutch

We Are

Thousand Foot Krutch

tabs Easy easy

by  JOV-CORREA

save to print version add songbook text version e-mail correct tuner
chordsukulelecavacokeyboardtabbassdrumsharmonicaflute Guitar Pro
close

there isn't a video lesson for this song

chords

We Are

	  		
If you want to learn "The Introduction" it's just an E power chord, which, in Drop B, is  
played on the 5th fret. 

Tuning: Drop B 

Tab Key: 
* = palm mute 
| = stop the note quickly (applies for bridge only) 
b = bend 
r = release 
/ = slide 

INTRO 
C#|-------------------------------------------------| 
G#|-------------------------------------------------| 
E |-------------------------------------------------| 
B |--0-8-7-0-0-00-8-7-0-0--0-8-7-0-0-00-8-7-0-0-10--| 2x 
F#|--0-8-7-0-0-00-8-7-0-0--0-8-7-0-0-00-8-7-0-0-10--| 
B |--0-8-7-0-0-00-8-7-0-0--0-8-7-0-0-00-8-7-0-0-10--| 

VERSE (Guitars are silent for a little while, then they come in with this, just listen  
for when they come in) 
"I think I'm ready..." 
C#|-------------------------------------------------------| 
G#|-------------------------------------------------------| 
E |-------------------------------------------------------| 
B |--0-10--0-8-7-0-0-00-8-7-0-0--0-8-7-0-0-00-8-7-0-0-10--| 
F#|--0-10--0-8-7-0-0-00-8-7-0-0--0-8-7-0-0-00-8-7-0-0-10--| 
B |--0-10--0-8-7-0-0-00-8-7-0-0--0-8-7-0-0-00-8-7-0-0-10--| 

C#|------------------------------------| 
G#|------------------------------------| 
E |------------------------------------| 
B |--8-8--8-8-8--8-10-10--10-11-11-11--| 
F#|--8-8--8-8-8--8-10-10--10-12-12-12--| 
B |--8-8--8-8-8--8-10-10--10-11-11-11--| 
     * *  * * *  * *  *   * 
C#|-------------------------------------------------| 
G#|-------------------------------------------------| 
E |-------------------------------------------------| 
B |--0-8-7-0-0-00-8-7-0-0-10--8-8-8-8-8-8-8-8-10-10-| 
F#|--0-8-7-0-0-00-8-7-0-0-10--8-8-8-8-8-8-8-8-10-10-| 
B |--0-8-7-0-0-00-8-7-0-0-10--8-8-8-8-8-8-8-8-10-10-| 
                              * * * * * * * * 
CHORUS 
"We are the ones..." 
C#|----------------------------------------------------------------| 
G#|----------------------------------------------------------------| 
E |----------------------------------------------------------------| 
B |--3-0-xx-xx-3-0-3-0-xx-x-xxxxx-8-8-8-8-8-8-8-8-7-7-7-7-6-6-6-6--| 
F#|--3-0-xx-xx-3-0-3-0-xx-x-xxxxx-8-8-8-8-8-8-8-8-7-7-7-7-6-6-6-6--| 
B |--3-0-xx-xx-3-0-3-0-xx-x-xxxxx-8-8-8-8-8-8-8-8-7-7-7-7-6-6-6-6--| 

C#|-----------------------------------------------------------------| 
G#|-----------------------------------------------------------------| 
E |-----------------------------------------------------------------| 
B |--3-0-xx-xx-3-0-3-0-xx-x-xxxxx-8-8-8-8-8-8-8-8-10-10-10-10-10-6--| 
F#|--3-0-xx-xx-3-0-3-0-xx-x-xxxxx-8-8-8-8-8-8-8-8-10-10-10-10-10-6--| 
B |--3-0-xx-xx-3-0-3-0-xx-x-xxxxx-8-8-8-8-8-8-8-8-10-10-10-10-10-6--| 

POST-CHORUS 
C#|-------------------------------------------------| 
G#|-------------------------------------------------| 
E |-------------------------------------------------| 
B |--0-8-7-0-0-00-8-7-0-0--0-8-7-0-0-00-8-7-0-0-10--| 
F#|--0-8-7-0-0-00-8-7-0-0--0-8-7-0-0-00-8-7-0-0-10--| 
B |--0-8-7-0-0-00-8-7-0-0--0-8-7-0-0-00-8-7-0-0-10--| 

VERSE 
"My heart is racing..." 
C#|-----------| 
G#|--13-------| 
E |-----9-10--| 
B |-----------| 
F#|-----------| 
B |-----------| 

C#|-------------------------------------------------------| 
G#|-------------------------------------------------------| 
E |-------------------------------------------------------| 
B |--0-10--0-8-7-0-0-00-8-7-0-0--0-8-7-0-0-00-8-7-0-0-10--| 
F#|--0-10--0-8-7-0-0-00-8-7-0-0--0-8-7-0-0-00-8-7-0-0-10--| 
B |--0-10--0-8-7-0-0-00-8-7-0-0--0-8-7-0-0-00-8-7-0-0-10--| 

C#|------------------------------------| 
G#|------------------------------------| 
E |------------------------------------| 
B |--8-8--8-8-8--8-10-10--10-11-11-11--| 
F#|--8-8--8-8-8--8-10-10--10-12-12-12--| 
B |--8-8--8-8-8--8-10-10--10-11-11-11--| 
     * *  * * *  * *  *   * 

C#|-------------------------------------------------| 
G#|-------------------------------------------------| 
E |-------------------------------------------------| 
B |--0-8-7-0-0-00-8-7-0-0-10--8-8-8-8-8-8-8-8-10-10-| 
F#|--0-8-7-0-0-00-8-7-0-0-10--8-8-8-8-8-8-8-8-10-10-| 
B |--0-8-7-0-0-00-8-7-0-0-10--8-8-8-8-8-8-8-8-10-10-| 
                              * * * * * * * * 

CHORUS 2 (Play this chorus twice) 
"We are the ones..." 
C#|----------------------------------------------------------------| 
G#|----------------------------------------------------------------| 
E |----------------------------------------------------------------| 
B |--3-0-xx-xx-3-0-3-0-xx-x-xxxxx-8-8-8-8-8-8-8-8-7-7-7-7-6-6-6-6--| 
F#|--3-0-xx-xx-3-0-3-0-xx-x-xxxxx-8-8-8-8-8-8-8-8-7-7-7-7-6-6-6-6--| 
B |--3-0-xx-xx-3-0-3-0-xx-x-xxxxx-8-8-8-8-8-8-8-8-7-7-7-7-6-6-6-6--| 

C#|-----------------------------------------------------------------| 
G#|-----------------------------------------------------------------| 
E |-----------------------------------------------------------------| 
B |--3-0-xx-xx-3-0-3-0-xx-x-xxxxx-8-8-8-8-8-8-8-8-10-10-10-10-10-6--| 
F#|--3-0-xx-xx-3-0-3-0-xx-x-xxxxx-8-8-8-8-8-8-8-8-10-10-10-10-10-6--| 
B |--3-0-xx-xx-3-0-3-0-xx-x-xxxxx-8-8-8-8-8-8-8-8-10-10-10-10-10-6--| 

BRIDGE 
C#|-------------------------------------------| 
G#|-------------------------------------------| 
E |-------------------------------------------| 
B |--0-3-0|--0-3-0-6-5-3-0-3-0|--0-3-0-6-6-6--| 
F#|--0-3-0|--0-3-0-6-5-3-0-3-0|--0-3-0-6-6-6--| 
B |--0-3-0|--0-3-0-6-5-3-0-3-0|--0-3-0-6-6-6--| 

C#|---------------------------------------------| 
G#|---------------------------------------------| 
E |---------------------------------------------| 
B |--0-3-0--0-0-3-0-6-5-3-0-3-0--0-0-3-0-6-6-6--| 
F#|--0-3-0--0-0-3-0-6-5-3-0-3-0--0-0-3-0-6-6-6--| 
B |--0-3-0--0-0-3-0-6-5-3-0-3-0--0-0-3-0-6-6-6--| 
            *                    * 
C#|-------------------------------------------------| 
G#|-------------------------------------------------| 
E |-------------------------------------------------| 
B |--0-3-0|-0|-00-3-0-6-5-3-0-3-0|-0|-00-3-0-6-5-3--| 
F#|--0-3-0|-0|-00-3-0-6-5-3-0-3-0|-0|-00-3-0-6-5-3--| 
B |--0-3-0|-0|-00-3-0-6-5-3-0-3-0|-0|-00-3-0-6-5-3--| 

C#|------------------------| 
G#|------------------------| 
E |------------------------| 
B |--8-8-8-8-8-8-8-8-10-10-| 
F#|--8-8-8-8-8-8-8-8-10-10-| 
B |--8-8-8-8-8-8-8-8-10-10-| 
     * * * * * * * * 

CHORUS (Play this twice) 
"We are the ones..." 
C#|----------------------------------------------------------------| 
G#|----------------------------------------------------------------| 
E |----------------------------------------------------------------| 
B |--3-0-xx-xx-3-0-3-0-xx-x-xxxxx-8-8-8-8-8-8-8-8-7-7-7-7-6-6-6-6--| 
F#|--3-0-xx-xx-3-0-3-0-xx-x-xxxxx-8-8-8-8-8-8-8-8-7-7-7-7-6-6-6-6--| 
B |--3-0-xx-xx-3-0-3-0-xx-x-xxxxx-8-8-8-8-8-8-8-8-7-7-7-7-6-6-6-6--| 

C#|-----------------------------------------------------------------| 
G#|-----------------------------------------------------------------| 
E |-----------------------------------------------------------------| 
B |--3-0-xx-xx-3-0-3-0-xx-x-xxxxx-8-8-8-8-8-8-8-8-10-10-10-10-10-6--| 
F#|--3-0-xx-xx-3-0-3-0-xx-x-xxxxx-8-8-8-8-8-8-8-8-10-10-10-10-10-6--| 
B |--3-0-xx-xx-3-0-3-0-xx-x-xxxxx-8-8-8-8-8-8-8-8-10-10-10-10-10-6--| 

There's a second guitar part that comes in on the second time through this chorus, and  
this is what it does. Tremolo pick each note. 

C#|-------------------| 
G#|-------------------| 
E |--7--9-10--14--12--| 
B |-------------------| 
F#|-------------------| 
B |-------------------| 

OUTRO 

C#|---------------| 
G#|---------------| 
E |---------------| 
B |--0-3-0-6-5-3--| 3x 
F#|--0-3-0-6-5-3--| 
B |--0-3-0-6-5-3--| 

C#|---------| 
G#|---------| 
E |---------| 
B |--0-3-0--| 
F#|--0-3-0--| 
B |--0-3-0--| 

Here's the second guitar part for the outro: 

C#|--10b12r10--10/13--------------------| 
G#|------------------------8-9-8--------| 
E |-------------------7-10-------10-7/--| 
B |-------------------------------------| 
F#|-------------------------------------| 
B |-------------------------------------| 

Finished! 
		  

See also:

tabs Placebo - Without you I'm Nothing tabs Kelly Clarkson - Since u been gone tabs Maroon 5 - She will be loved (intro) tabs Cyndi Lauper - Time After Time tabs Pink - Who knew tabs Black Eyed Peas - My humps
e-chords

Other versions:

tabs Kids In The Way - We Are tabs Thousand Foot Krutch - We Are tabs Hollywood Undead - We Are tabs Dope - We Are tabs Misfits - We Are 138 tabs A.C.A.B - We Are Acab
auto scroll beats size up size down change color hide chords drawings
tab show chords e-chords YouTube Clip e-chords hide all tabs e-chords go to top tab

share