Johann Sebastian Bach

home > Johann Sebastian B...

Allemande From Suite N.3 For Solo Cello, Bwv 1009 Tab

Johann Sebastian Bach

Difficulty: EasyEasy

by alexribeiro

tuner correct add songbook print version text version save to e-mail
chordsukulelecavacokeyboardtabbassdrumsharmonicsflute Guitar Pro
chords

Allemande From Suite N.3 For Solo Cello, Bwv 1009

  		(note duration) w=1, h=1/2, q=1/4, e=1/8, s=1/16, t=1/32. 

  s s s  e s s s s s s s s s s           s s s  s s s s s s s s s s e     T T T T s s 
||--2-4-|5-4-2---------------------------------|--------0---------0-------------------| 
||5-----|------5-3-2-5-3-2-0---------------0-2-|3-2---2---0---------------5-3-2-3-5-2-| 
||------|--------------------2-----------2-----|----4-------2-1-2---1h----------------| 
||------|----------------------2-0-------------|----------------------4-2-------------| 
||------|0-------------------------4-2-0-------|2-----0-------------------------------| 
||------|--------------------------------------|----------4-----2---0-----------------| 
         e                     s s s s s        e     e   e     e   q s s 

   s s s T T T T s s   s s s T T T T s s      T T s s s s     s e   T T T T s s 
|--0-5-------------------4---------------|--------------------------------------| 
|------2-3-2---2-3-----3-----2-0---0-2---|--------0-3-2-------------------------| 
|------------4-----4-------4-----2-----2-|----1-2-------2-----1-2---6-4-------6-| 
|4-------------------2-------------------|0-4---------------2-0-2-------7-6-7---| 
|--------2-------------------0-----------|2-----------0-4-5-----4-0-------------| 
|----------------------------------------|--------4---------0-------------------| 
 q       q           q       q            e T     e   s t t s s e e 

 s s s s s s     E s T T T T T s s  s s s s s s   s s s   s   s   s 
|----7---0-------------------4-5---|--------------------------0---2---| 
|--7-------------7-----4-5-7-----7-|9-0---0-2-3-----3-2---4---2---4---| 
|8-----8---------4-4-6-------------|----2---------1---2---4-----------| 
|----------6-4---4-----------------|------------4---------------------| 
|--------------7-6-------------6---|7---------2---2-----0---0---0-----| 
|7-------9-------------------------|------4-------------------------0-| 
 q       q   s s E             e    e     e   e s e     s   s   s   s 

 s   s   s   s   T  T T T s s  e  T T T e s  E  s s s  e T T T e s s s s s e T T T s s 
|4---5---7---9---11-------11--------9-1112--|---1211-----------9-----9-7---------4-5---| 
|5---7---9---10----10--10---10-9-12-------9-|------------91012---------------5-7-------| 
|------------------------------9------------|11--------9---------9-8-------6---------6-| 
|---------------------9-----------------11--|-------9-11-------7---------6-7-------4---| 
|-------------------------------------------|12--------------------9-------------------| 
|--0---0---0---0-7--------------------------|------------------------------------------| 
   s   s   s   s q                                            E               e 

 s s s   s s s s s s s s s s s s s s s s  s s s s s T T T T s s s s s s     T T T s s 
|--5-4---------------------------0---0----|--2-0-2-----------0-7-5-------------------4-| 
|0-------------2-----4-2-4---------4------|------------0-2-4-------4---4---------0-2---| 
|--------2-1-2---1-2-------2-1-2-------2-1|2-------2-1---------------6-------1-2-------| 
|------2-4-----2---1----------------------|----------2-----------4-------4-2-----------| 
|6-----------------------------4----------|2-----------------4---------2---4-------0---| 
|-----------------------------------------|--------------------------------------------| 
 E     s e     e   e           e          e         e       e   e     e s e       e 

 s s s s         T s s T T T T s s s s   s  s s s s s s s s   s s q      s s s 
|2-------------------0---------7-----0-----|0-4-5-7-0-2-4-0-------0--||----9-11| 
|--0---0-----------------7-910-----------4-|------------------0------||-12-----| 
|----2-----------------8-------------------|--------------------8---*||*-------| 
|1-------------4-6-7-------------7-6-------|------------------------*||*-------| 
|--------6-4-7-----------------6---7---2---|-------------------------||--------| 
|------4---5-------9---7-------------------|0-----0-----0-4-5-7---0--||--------| 
 e     e s e T T   e   e       e   e   e    e     e     s t t e   Q 

 s s s s s s s s s s s s s s     s s s  T T T T  s s s s s s s s s s s T T T T s s 
|12119-------------------------------7-|9-7------------------4---------------------| 
|-----1210-91210-9-----0---------910---|---10-9-10-7---0-2-3---6-4---0-------0-2---| 
|-----------------11-9---2-1-----------|-------------7-------------6---2-1-2-----2-| 
|----------------------------4-2-------|-------------------------------4-----------| 
|--------------------------------------|0----------------------4---7---------------| 
|0-------------------------------------|-------------7-------------------------2---| 
 e                           s s        q           q         e   e   e       e 

     s s T T T T s s s s   s T T T T s s  T T T T s s T       s s   s T T T T T s s 
|--------------------1-----4-5-4---4-5-2-|--------------------------------------7---| 
|------2-0---0-2-3-0---0---------7-------|3-2---2-3-------------0---------7-910---9-| 
|----2-----2-----------------------------|----4-----4-1-------1-----6-810-----------| 
|0-4-------------------------4-----------|------------0-4-3-4-----------------------| 
|----------------2-------4---------------|2-----------------------4-------------8---| 
|--------4---------------------------2---|------------------------------------------| 
 q s     e       e       s   e       e    q           q T T T     Q             e 

 T  T T T s s s s s s E s s s s s s s  s s s s s   s s s s s s s s T T T T s 
|---------------4---1-2---7-9---------|0-3-2-3-----3-2-0-2-------2---------0---| 
|10-9-7-6-7---0---2----10-----7-910---|--------------------3-2-3-------2-3-----| 
|-----------------------------------6-|--------2-------------------3-4---------| 
|-----------7-0-----------------------|------2-----------0-------------------4-| 
|9--------0-------4-------------------|0---------4---0---------2-----------1---| 
|---------------------2---------------|----------------------------2-----------| 
 e        e   e   e   E                e     e   e   e   e     e   e       e s 

   s s s s s s s s s s T T   T s s e T T T s s  s s s   T T T T s s s s s     T T T s 
|----------0-2-4-5-7-5-4-------4-----0-2-4-5---|--5-4---------0-2-----2-0---------------| 
|--0-2-3-3---------------3---3---3-2---------2-|0---------2-3-------------------0-2-3---| 
|----------------------------------2-----------|--------2---------2-1---------2---------| 
|------------0-------------2---------------4---|0-----2-4-------0-----------4---------4-| 
|2---------------------------------------------|--------------------2-----4-5-------2---| 
|----------------------0-----------------------|----------------------------------------| 
 q           q         q   T               e    E     s e       e   E     s e       e s 

   s s     s s s s s s s s s s s s s s s s  e   s s s s s s s s s s s s s s s s s s s s 
|----------2-0---------5-4-5-4-2-0-------4-|5---3-2-0-------2-----4-2-4-------5-4-5----| 
|--3-2---------3-3-2-0-------------3-2-0---|----------3-2-3---2-3-------3-2-3-------3-2| 
|------------------------------------------|-------------------------------------------| 
|2-------0-------------------0-----0---2---|4-4----------------------------------------| 
|------0-------------------------4---------|--0-------2-----0--------------------------| 
|4-----------------------------------------|--------------------4-----------2----------| 
 E     s q                   s   s s   e    e e       e     e   e           e 

 s s s s s T T T T s s s s s s s s s     s    s s s s s s s s s s Q 
|--7-5-7-------------0-5-4-2-0-------------|--5-4-5-0---0---------5--|| 
|3-------3-2-0---0-2-----------3-2---------|----------3---2-0-2---2--|| 
|--------------2-------------------2-----1-|--------------------2-2-*|| 
|--------------------------------------2---|----------------------2-*|| 
|----------0---------------------0-2-4-----|0---------------------0--|| 
|0-----------------4---2-----4-----------0-|-------------------------|| 
 e         e       e   e     e   s t t s s  h                     q 
	  

Search Paypal
auto scroll beats size up size down change color hide chords drawings
tab show chords e-chords YouTube Clip e-chords hide all tabs e-chords go to top tab