Johann Sebastian Bach

home > Johann Sebastian B...

Tocata E Fuga Em Ré Menor Tab

Johann Sebastian Bach

Difficulty: ExpertExpert

by Teusalves

tuner correct add songbook print version text version save to e-mail
chordsukulelecavacokeyboardtabbassdrumsharmonicsflute Guitar Pro
chords

Tocata E Fuga Em Ré Menor

(Johann Sebastian Bach)

	  1 - 

---------------------------------------------------------------- 
----0-----0-----0-----0----------------------------------------- 
-------2-----0-------------------------------------------------- 
-------------------4-----2-------------------------------------- 
---------------------------------------------------------------- 
-0-------------------------------------------------------------- 


2 - 

---------------------------------------------------------------- 
----0-----0-----0-----0-----0-----0-----0-----0-----0----------- 
-------2-----0-----------------------------------0-------------- 
-------------------4-----2-----1-----2-----4-------------------- 
---------------------------------------------------------------- 
-0-------------------------------------------------------------- 



3 - 


---------------------------------------------------------------- 
----0-----0-----0-----0-----0-----0------0------0--------------- 
---------------------------------------------0------------------ 
-2-----4-----1-----2-----1-----2-----4-------------------------- 
---------------------------------------------------------------- 
---------------------------------------------------------------- 


4 -  

----0-----0-----0-----0-----0-----0-----0-----0-----0-----0----- 
-------3-----1-----------------------------------1-------------- 
-------------------4-----2-----1-----2-----4-------------------- 
-------------------------------------------------------2-------- 
-0-------------------------------------------------------------- 
---------------------------------------------------------------- 


----0-----0-----0-----0-----0-----0-----0----------------------- 
-------------------------------------1-------------------------- 
-------1-----2-----1-----2-----4-------------------------------- 
-4-------------------------------------------------------------- 
---------------------------------------------------------------- 
---------------------------------------------------------------- 


5- 

-1----------------3----------------0-----------------1---------- 
-----3---3---3--------3---3---3---------1---1---1--------1---1-- 
---2---2---2---2----4---4---4---4-----0---0---0---0----2---2---- 
-0----------------5----------------------------------3---------- 
-----------------------------------3---------------------------- 
---------------------------------------------------------------- 



--------------------------0------------------------------------- 
---1----3----3---3---3----0----0---0---0----1------------------- 
-2---2-----2---2---2---2--2--2---2---2---2--2------------------- 
--------------------------------------------2------------------- 
--------5-----------------------------------0------------------- 
--------------------------0-------------------------------------
	  

there isn't a video lesson for this song

request
Search
auto scroll beats size up size down change color hide chords drawings
tab show chords e-chords YouTube Clip e-chords hide all tabs e-chords go to top tab