Johann Sebastian Bach

home > Johann Sebastian B...

Cello Suite No. 1 - Minuet I e II Tab

Johann Sebastian Bach

Difficulty: ExpertExpert

by Acelot

tuner correct add songbook print version text version save to e-mail
chordsukulelecavacokeyboardtabbassdrumsharmonicsflute Guitar Pro
chords

Cello Suite No. 1 - Minuet I e II

(Johann Sebastian Bach)

  		
                           Minueto I   


 Parte A   


 e|-----2-0-2h3-2-0-------------3-0---5-2h3p2h3p2h3p2-0------|   
 B|-----------------3-2-3---0-3-----2------------------------|   
 G|---2-------------------2-------------2-------------2------|   
 D|-0-----------0-----------------------0--------------------|   
 A|-------4-------------------------0------------------------|   
 E|-----------------0---4---5---2----------------------------|   



 e|-----3--2-3h5-3-2-0---------------------------------------|   
 B|---2----------------3---0-2-3h5-3-2-0-2-------------------|   
 G|----------------------6-----------------2-----------------|   
 D|-2------0-----2-------------------------2-----------------|   
 A|--------------------------0-------------------0-----------|   
 E|------------------5---6---------0---2---------------------|   



 Parte B   



 e|-----0----0h2-0-----------------0-2-5---5-3-2-3-----0-3---|   
 B|---0----3-------3-2-----2-----4-------------------2-------|   
 G|-2------------0-----4-2-----2-------------------3---------|   
 D|--------4---------2---5---4-----------2-------------------|   
 A|-0--------------------------------------------------------|   
 E|----------------------------------------------2-4---------|   



 e|-2-0-2-----0-3-2-0----------------------------------------|   
 B|-------0-----------3-2--------------------3-----------0---|   
 G|-----------------------4---3----4-2-0---2---2-4/5-5-2-----|   
 D|---------0---2------------------------4-------------------|   
 A|-1---------------------------2----4-----------------------|   
 E|-----------------5---2---4------------0-----4-----5-------|   



 e|-----------0-----------------------0-3-2-5-----2-5-3-7-5--|   
 B|---------0---0-2h3-3-0-2---------2---------0-3------------|   
 G|-0-----1-----------------2-----2-----------0--------------|   
 D|-----4-----------------------2-----2---0-------4---2---4--|   
 A|-------------------0-------0------------------------------|   
 E|---5---2-----6--------------------------------------------|   



 e|----------------------------------------------------------|   
 B|-2-3-----2-3----------------------------------------------|   
 G|----------------------------------------------------------|   
 D|-----4-2---0----------------------------------------------|   
 A|-------0-----0--------------------------------------------|   
 E|---5-----------0------------------------------------------|   



                           Minueto II   


 Parte A   


 e|-1p0-1-----------0------------------------------0---------|   
 B|------------------------3-2-3---------------3-2-----------|   
 G|-------------------2------------0---------2---------------|   
 D|--------7-8-0-----------------3---------2-----------------|   
 A|---------------3--------1---------1---0-------------------|   
 E|-0--------------------------------------------------------|   




 e|-----------------0----------------------------------------|   
 B|------------------------3-2-3---------3-2h3p--------------|   
 G|-6p5-6-------------2------------0-------------------------|   
 D|--------7-8-0-----------------3---------------------------|   
 A|---------------3--------1---------1-0---------------------|   
 E|-0--------------------------------------------------------|   




 Parte B   



 e|-----0-3-6-5-3-1-0-1-0-----------5-3-1-0---0---------1-0-1|   
 B|---2-------------------3---0-3-6---------3---1-----1------|   
 G|-2-----------------------0---------------------3-2--------|   
 D|-------------0--------------------------------------------|   
 A|-0-------4-----------------------2---3--------------------|   
 E|---------------------3---5-------------------2---3--------|   




 e|-------1-0---5-3-6-5-------1--------------------------3---|   
 B|-----3-----6---------6---5---1---1--------1-4-3-----3-----|   
 G|-2-3---------------------------2--------2-------5-3-------|   
 D|---0-----------2---3---------------3--4-------------------|   
 A|-----------------------3----------------------------------|   
 E|---------------------------3----------0-------4---5-------|   




 e|-5-5/6-----------------1-3-3h5-------------------0-1------|   
 B|-------------3-1-----1-------------------------3-----3----|   
 G|---0-----0-3-----3-2---------------0-3-2-0---2------------|   
 D|-------2-------------------3-----2---------3-------0------|   
 A|-------3-----------------------4-------0------------------|   
 E|---------------2---3-----------------------0--------------|   




 e|---1-0----------------------------------------------------|   
 B|-------3---2----------------------------------------------|   
 G|-0--------------------------------------------------------|   
 D|-------------0--------------------------------------------|   
 A|-1-------0------------------------------------------------|   
 E|-----5-------0--------------------------------------------|   


	  

Search Paypal
auto scroll beats size up size down change color hide chords drawings
tab show chords e-chords YouTube Clip e-chords hide all tabs e-chords go to top tab