Johann Sebastian Bach

home > Johann Sebastian B...

Jesus a Alegria dos Homens Tab

Johann Sebastian Bach

Difficulty: ExpertExpert

by fireguitar

tuner correct add songbook print version text version save to e-mail
chordsukulelecavacokeyboardtabbassdrumsharmonicsflute Guitar Pro
chords

Jesus a Alegria dos Homens

  		 JESUS A ALEGRIA DO HOMENS                             
 
 
Transcrição 
Charles Albert Silva 
      
 
E||-----------0--3--1--1--5--3--|--3--8--7--8-----------------| 
B||-----1--3--1-----------------|--------------8-----------5--| 
G||--------------------2--------|-----------------9--5--7-----| 
D||-----------------------------|--2--------7-----------------| 
A||--3--------------------------|-----------------------------| 
E||-----------------------------|--------------------5--------| 
 
 
     
-----3--5--3--1--0-----0-----|--------------------1--0-----| 
--6-----------------3-----1--|--0--1--3-----0--3--------3--| 
-----------------------------|--0--------0--------0--------| 
-----------2--------3--------|-----------------------------| 
--5--------------------------|-----------------------------| 
-----------------------------|-----------------------------| 
 
 
    
--0--------0--3--1--1--5--3--|--3--8--7--8------------------| 
-----1--3--------------------|--------------8---------------| 
-----------------------------|-----------------9------7--9--| 
--------------------3--------|--2--------7--------10--------| 
--3--------0-----------------|--------------------10--------| 
-----------------------------|------------------------------| 
 
 
   
-----------------------------|-----0--3--8-----0--------3--| 
-----8--6--5--3--------------|--------------8-----1--1-----| 
-----------------5-----5--4--|--5-----------------0--------| 
--7--------4--------5--------|--------------------------2--| 
--8--------------------------|--3--------7-----------------| 
-----------------------------|-----------------------------| 
 
 
      
--0-------------1------|--3-------------3------|--1-------------0------| 
--1-------------1------|--3-------------3------|--1-------------1------| 
--0-------------2------|--0-------------0------|--2-------------0------| 
-----------------------|-----------------------|-----------------------| 
--3------2------0------|--2------0------2------|--0------2------3------| 
-----------------------|-----------------------|-----------------------| 
 
 
    
-----------------------1--0--|--1-----------------1--0-----| 
--3--------0--3--1--3--------|-----3--0-----0--3--------3--| 
-----0--2-----------0--------|--0--------0--------0--------| 
-----------0-----------------|-----------------------------| 
--2--------------------------|-----------------------------| 
-----------------------------|-----------------------------| 
 
 
        
--0-------------1------|--3-------------0------|---------0--1--0---------| 
--1-------------1------|--1-------------1------|--3---------------3------| 
--0-------------2------|--0-------------2------|---------------0---------| 
-----------------------|--2--------------------|--3---------------3------| 
--3------2------0------|---------0-------------|-------------------------| 
-----------------------|-----------------------|-------------------------| 
 
 
      
-----0-----0--3--1--1--5--3--|--3--8--7--8-----------------| 
--1-----3--1-----------------|--------------8-----------5--| 
--------------------2--------|-----------------9--5--7-----| 
-----------------------------|--2--------7-----------------| 
--3--------------------------|-----------------------------| 
-----------------------------|--------------------5--------| 
 
 
     
-----3--5--3--1--0-----0-----|--------------------1--0-----| 
--6-----------------3-----1--|--0--1--3-----0--3--------3--| 
-----------------------------|--0--------0--------0--------| 
-----------2--------3--------|-----------------------------| 
--5--------------------------|-----------------------------| 
-----------------------------|-----------------------------| 
 
 
      
--0--------0--3--1--1--5--3--|--3--8--7--8------------------| 
-----1--3--------------------|--------------8---------------| 
-----------------------------|-----------------9------7--9--| 
--------------------3--------|--2--------7--------10--------| 
--3--------0-----------------|--------------------10--------| 
-----------------------------|------------------------------| 
 
 
      
-----------------------------|-----0--3--8-----0-----0--3--| 
-----8--6--5-----------------|--------------8-----1--------| 
--------------2--0-----0-----|--5-----------------0--------| 
--7--------4--------0-----4--|--------------------------2--| 
--8--------------------------|--3--------7-----------------| 
-----------------------------|-----------------------------| 
 
 
         
--0-------------1------|--3-------------3------|--1-------------0------| 
--1-------------1------|--3-------------3------|--1-------------1------| 
--0-------------2------|--0-------------0------|--2-------------0------| 
-----------------------|-----------------------|-----------------------| 
--3------2------0------|--2------0------2------|--0------2------3------| 
-----------------------|-----------------------|-----------------------| 
 
 
      
-----------------------1--0--|--1-----------------1--0-----| 
--3--------0--3--1--3--------|-----3--0-----0--3--------3--| 
-----0--2-----------0--------|--0--------0--------0--------| 
-----------0-----------------|-----------------------------| 
--2--------------------------|-----------------------------| 
-----------------------------|-----------------------------| 
 
 
         
--0-------------1------|--3-------------0------|---------0--1--0---------| 
--1-------------1------|--1-------------1------|--3---------------3------| 
--0-------------2------|--0-------------2------|---------------0---------| 
-----------------------|--2--------------------|--3---------------3------| 
--3------2------0------|---------0-------------|-------------------------| 
-----------------------|-----------------------|-------------------------| 
 
 
      
-----0-----0--3--1--1--5--3--|--3--8--7--8-----------------| 
--1-----3--1-----------------|--------------8-----------5--| 
--------------------2--------|-----------------9--5--7-----| 
-----------------------------|--2--------7-----------------| 
--3--------------------------|-----------------------------| 
-----------------------------|--------------------5--------| 
 
 
     
-----3--5--3--1--0-----0-----|--------------------1--0-----| 
--6-----------------3-----1--|--0--1--3-----0--3--------3--| 
-----------------------------|--0--------0--------0--------| 
-----------2--------3--------|-----------------------------| 
--5--------------------------|-----------------------------| 
-----------------------------|-----------------------------| 
 
 
     
--0--------0--3--1--1--5--3--|--3--8--7--8------------------| 
-----1--3--------------------|--------------8---------------| 
-----------------------------|-----------------9------7--9--| 
--------------------3--------|--2--------7--------10--------| 
--3--------0-----------------|--------------------10--------| 
-----------------------------|------------------------------| 
 
 
     
-----------------------------|-----0--3--8-----0-----0--2--| 
-----8--6--5--3--------------|--------------8-----1--------| 
-----------------5-----5--4--|--5-----------------0--------| 
--7--------4--------5--------|-----------------------------| 
--8--------------------------|--3--------7-----------------| 
-----------------------------|-----------------------------| 
 
 
     
--3-------------0------|--1------------1---------|--0-------------1--3--0--| 
--0-------------2------|--3----------------------|--3-------------------2--| 
--0-------------0------|--2----------------------|--0------2------------2--| 
---------3------2------|--0------2--0--3--2------|-------------------------| 
-----------------------|-------------------------|-------------------------| 
-----------------------|-------------------------|-------------------------| 
 
 
   
-----1--0--1--5--3--3--6--5--|--5--10--9--10-------------0-----| 
--3--------------------------|----------------10------------6--| 
-----------3--------0--------|--------------------10--7--------| 
--0--------------------------|--3----------8----------7--------| 
-----------------------------|---------------------------------| 
-----------------------------|---------------------------------| 
 
 
         
--6--5--3--1--0--------------|--1---------------3------|--5-------------5------| 
-----------------3-----3--2--|--3--------3------1------|--6-------------6------| 
--0--------1--------2--------|--2-----2---------0------|--5-------------8------| 
-----------------------------|--0--3------------2------|--3------0------7------| 
--------------------0--------|-------------------------|-----------------------| 
-----------------------------|-------------------------|-----------------------| 
 
 
     
----------------5--6--3--|--1--8--6--8--5--------------| 
--8-------------------1--|--1--------------6-----3--4--| 
--7------0------------3--|--2-----------------5--------| 
--7-------------------2--|--3--------7--------3--------| 
-------------------------|-----------------------------| 
-------------------------|-----------------------------| 
 
 
      
-----1--0--1-----------------|-----------------------0-----| 
--3-----------3--------------|--------------1--0--1-----3--| 
--3--------0-----3--0--2--3--|--2-----0--2-----------------| 
-----------------------------|--3--3-----3--------2--------| 
--------------------3--------|-----------------------------| 
-----------------------------|-----------------------------| 
 
 
         
--0-------------1------|--3-------------3------|--1-------------0------| 
--1-------------1------|--1-------------1------|--1-------------1------| 
--0-------------2------|--0------2-------------|----------------0------| 
-----------------------|--2-------------2------|--0--------------------| 
--3------2------0------|----------------0------|---------2------3------| 
-----------------------|-----------------------|-----------------------| 
 
 
  
-----------------------1--0--|--1-----------------1--0-----| 
--3--------0--3--1--3--------|-----3--0-----0--3--------3--| 
-----0--2-----------0--------|--0--------0--------0--------| 
-----------0-----------------|-----------------------------| 
--2--------------------------|-----------------------------| 
-----------------------------|-----------------------------| 
 
 
       
--0-------------1------|--3-------------0------|---------0--1--0---------| 
--1-------------1------|--1-------------1------|--3---------------3------| 
--0-------------2------|--0-------------2------|---------------0---------| 
-----------------------|--2--------------------|--3---------------3------| 
--3------2------0------|---------0-------------|-------------------------| 
-----------------------|-----------------------|-------------------------| 
 
 
  
-----0--3--8-----0-----0--3--|--6--3--0-----0--3--5--1-----| 
--1-----------8-----1--------|-----------1--------------3--| 
-----------------------------|--0--------------------------| 
-----------------------------|-----------2--------3--------| 
--3--------7--------3--------|-----------------------------| 
-----------------------------|-----------------------------| 
 
 
     
--------1--3--0-----------0--|--1-----------------1--0-----| 
--0--3-----------1-----1-----|-----3--0-----0--3--------3--| 
--------------------2--------|-----------0--------0--------| 
--0--------2-----------------|--0--------------------------| 
--------------------3--------|-----------2-----------------| 
-----------------------------|-----------------------------| 
 
 
     
--0--------0--3--1--1--5--3--|--3--8--7--8-----------------| 
-----1--3--------------------|--------------8-----------5--| 
-----------------------------|-----------------9--5--7-----| 
--------------------3--------|--2--------7-----------------| 
--3--------0-----------------|-----------------------------| 
-----------------------------|--------------------5--------| 
 
 
     
-----3--5--3--1--0-----0-----|--------------------1--0-----| 
--6-----------------3-----1--|--0--1--3-----0--3--------3--| 
-----------------------------|--0--------0--------0--------| 
-----------2--------3--------|-----------------------------| 
--5--------------------------|-----------------------------| 
-----------------------------|-----------------------------| 
 
 
      
--0--------0--3--1--1--5--3--|--3--8--7--8------------------| 
-----1--3--------------------|--------------8---------------| 
-----------------------------|-----------------9------7--9--| 
--------------------3--------|--2--------7--------10--------| 
--3--------0-----------------|--------------------10--------| 
-----------------------------|------------------------------| 
 
 
                
-----------------------------|-------------------|| 
-----8--6--5--3--------------|--1----------------|| 
-----------------5-----5--4--|--0----------------|| 
--7--------4--------5--------|--2----------------|| 
--8--------------------------|--3----------------|| 
-----------------------------|-------------------|| 

	  

Search Paypal
auto scroll beats size up size down change color hide chords drawings
tab show chords e-chords YouTube Clip e-chords hide all tabs e-chords go to top tab