Hollywood Undead

home > Hollywood Undead

Gravity Tab

Hollywood Undead

Difficulty: nolevelnolevel

by lucicamargo

tuner correct add songbook print version text version save to e-mail
chordsukulelecavacokeyboardtabbassdrumsharmonicsflute Guitar Pro
chords

Gravity

Key:  D More
Gravity Key AA
Gravity Key A#A#
Gravity Key BB
Gravity Key CC(one step down)
Gravity Key C#C#(half step down)
Gravity Key DD(original key)
Gravity Key D#D#(half step up)
Gravity Key EE(one step up)
Gravity Key FF
Gravity Key F#F#
Gravity Key GG
Gravity Key G#G#
  		
Intro 

Rhythm Guitar 

E|-------------------------| 
B|-------------------------| 
G|-------------------------| 
D|-5---7---9---9--5---7--9-| 
A|-5---7---9---9--5---7--9-| 
D|-5---7---9---9--5---7--9-| 

Lead: (at 0:22)  

E|-10-9-7~~~-| 
B|-----------| 
G|-----------| 
D|-----------| 
A|-----------| 
D|-----------| 

verse 1 

Lead Guitar: (at 0:39) 


E|-------------------------|---------------------------------| 
B|-------------------------|---------------------------------| 
G|-5-5-5---5-5-5---5-5-5---|---5-5-5---5-5-5---5-5-5---5-5-5-| 
D|-------------------------|---------------------------------| 
A|-------------------------|---------------------------------| 
D|-------------------------|---------------------------------| 

Chorus 1 

Rhythm Guitar (x2) 

E|-------------------------| 
B|-------------------------| 
G|-------------------------| 
D|-5---7---9---9--5---7--9-| 
A|-5---7---9---9--5---7--9-| 
D|-5---7---9---9--5---7--9-| 

Lead Guitar: (at 1:11)  

E|-10-9-7~~~-| 
B|-----------| 
G|-----------| 
D|-----------| 
A|-----------| 
D|-----------| 

Post Chorus: 
(Not 100% on this because of the electronics) 

Rhythm Guitar: (x2) 

E|--------------|----------------|----------------| 
B|--------------|----------------|----------------| 
G|--------------|----------------|----------------| 
D|-12/5--5--5-5-|-7-7-7--9-9-9-9-|--9---9---9---9-| 
A|-12/5--5--5-5-|-7-7-7--9-9-9-9-|--9---9---9---9-| 
D|-12/5--5--5-5-|-7-7-7--9-9-9-9-|--9---9---9---9-| 

verse 2 

Lead Guitar: (at 1:40)  

E|-------------------------|---------------------------------| 
B|-------------------------|---------------------------------| 
G|-5-5-5---5-5-5---5-5-5---|---5-5-5---5-5-5---5-5-5---5-5-5-| 
D|-------------------------|---------------------------------| 
A|-------------------------|---------------------------------| 
D|-------------------------|---------------------------------| 

Chorus 2 

Rhythm Guitar (x2) 

E|-------------------------| 
B|-------------------------| 
G|-------------------------| 
D|-5---7---9---9--5---7--9-| 
A|-5---7---9---9--5---7--9-| 
D|-5---7---9---9--5---7--9-| 

Lead Guitar: (at 2:10)  

E|-10-9-7~~~-| 
B|-----------| 
G|-----------| 
D|-----------| 
A|-----------| 
D|-----------| 

Bridge: (There is no guitar but you can play the Chorus chords without distortion)  

E|-------------------------| (x2) 
B|-------------------------| 
G|-------------------------| 
D|-5---7---9---9--5---7--9-| 
A|-5---7---9---9--5---7--9-| 
D|-5---7---9---9--5---7--9-| 

Chorus 3 

E|-------------------------| 
B|-------------------------| 
G|-------------------------| 
D|-5---7---9---9--5---7--9-| 
A|-5---7---9---9--5---7--9-| 
D|-5---7---9---9--5---7--9-| 

Lead Guitar: (at 3:01)  

E|-10-9-7~~~-| 
B|-----------| 
G|-----------| 
D|-----------| 
A|-----------| 
D|-----------| 

Post Chorus/Outro: 
(Still not 100% on this because of the electronics) 
  
Rhythm Guitar: (x2) 

E|--------------|----------------|----------------| 
B|--------------|----------------|----------------| 
G|--------------|----------------|----------------| 
D|-12/5--5--5-5-|-7-7-7--9-9-9-9-|--9---9---9---9-| 
A|-12/5--5--5-5-|-7-7-7--9-9-9-9-|--9---9---9---9-| 
D|-12/5--5--5-5-|-7-7-7--9-9-9-9-|--9---9---9---9-| 


*********************************** 

~     Sustain Note/Hold Note 
/     Slide Down 

***********************************  
	  

Search Paypal
auto scroll beats size up size down change color hide chords drawings
tab show chords e-chords YouTube Clip e-chords hide all tabs e-chords go to top tab