Papa Roach

home > Papa Roach

Gravity Tab

Papa Roach

Difficulty: nolevelnolevel

by aman%5Fclaudino

tuner correct add songbook print version text version save to e-mail
chordsukulelecavacokeyboardtabbassdrumsharmonicsflute Guitar Pro
chords

Gravity

Key:  C More
Gravity Key GG
Gravity Key G#G#
Gravity Key AA
Gravity Key A#A#(one step down)
Gravity Key BB(half step down)
Gravity Key CC(original key)
Gravity Key C#C#(half step up)
Gravity Key DD(one step up)
Gravity Key D#D#
Gravity Key EE
Gravity Key FF
Gravity Key F#F#
  		

Tuning: Drop C (C,G,C,F,A,D) 

Riff 1 (light distortion) 
D|----------------------| 
A|----------------------| 
F|----------------------| 
C|----8--8-8-8-8--8-----| 
G|-5--5--5-5-5-5--5--5\-| 
C|-5--5--5-5-5-5--5--5\-| 

*no guitar during verse* 

Play Riff 1 x1 

Riff 2   "And we fly, fly into outer space..." 
D|-------------------------------------------------| 
A|-------------------------------------------------| 
F|-3--3--3-3-3-3--3--3-3-3-------------------------| 
C|-1--1--1-1-1-1--1--1-1-1-8--8--8-8-8-8--8--8-8-8-| 
G|-1--1--1-1-1-1--1--1-1-1-5--5--5-5-5-5--5--5-5-5-| 
C|-1--1--1-1-1-1--1--1-1-1-5--5--5-5-5-5--5--5-5-5-| 

D|------------------------------------------------------------| 
A|------------------------------------------------------------| 
F|------------------------------------------------------------| 
C|-10--10--10-10-10-10--10--10-10-10-7--7--7-7-7-7--7-7-7-7-7-| 
G|-8---8---8--8--8--8---8---8--8--8--3--3--3-3-3-3--3-3/5-5-5-| 
C|-8---8---8--8--8--8---8---8--8--8--3--3--3-3-3-3--3-3/5-5-5-| 

Play Riff 2 x2   "And we die, die to love another day..." 
Play Riff 1 x1 

*no guitar during verse* 

Play Riff 1 x1 
Play Riff 2 x2   "And we fly, fly into outer space..." 

Riff 3   "You love me, you hate me..." 
D|-1--1--1-1-1-1--1--1-1-1-------------------------------------------------| 
A|-3--3--3-3-3-3--3--3-3-3-------------------------------------------------| 
F|-2--2--2-2-2-2--2--2-2-2-------------------------------------------------| 
C|-0--0--0-0-0-0--0--0-0-0-7--7--7-7-7-7--7--7-7-7-8--8--8-8-8-8--8--8-8-8-| 
G|-0--0--0-0-0-0--0--0-0-0-3--3--3-3-3-3--3--3-3-3-5--5--5-5-5-5--5--5-5-5-| 
C|-0--0--0-0-0-0--0--0-0-0-3--3--3-3-3-3--3--3-3-3-5--5--5-5-5-5--5--5-5-5-| 

D|-1--1--1-1-1-1--1--1-1-1-------------------------------------------------| 
A|-3--3--3-3-3-3--3--3-3-3-------------------------------------------------| 
F|-2--2--2-2-2-2--2--2-2-2-3--3--3-3-3-3--3--3-3-3-------------------------| 
C|-0--0--0-0-0-0--0--0-0-0-1--1--1-1-1-1--1--1-1-1-8--8--8-8-8-8--8--8-8-8-| 
G|-0--0--0-0-0-0--0--0-0-0-1--1--1-1-1-1--1--1-1-1-5--5--5-5-5-5--5--5-5-5-| 
C|-0--0--0-0-0-0--0--0-0-0-1--1--1-1-1-1--1--1-1-1-5--5--5-5-5-5--5--5-5-5-| 

D|-------------------------------| 
A|-------------------------------| 
F|-------------------------------| 
C|-8--8--8-8-8-8--8--8-8-8-3~----| 
G|-6--6--6-6-6-6--6--6-6-6-3~----| 
C|-6--6--6-6-6-6--6--6-6-6-3~----| 

Play Riff 2 x2   "Fly into outer space..." (acoustic) 
                 (2nd time through gets cut short, listen to song for it) 
Play Riff 2 x4   "And we fly, fly into outer space...) (distortion) 
Play Riff 2 x1   (acoustic, fade out) 

Enjoy!! 
	  

Full key step upFull key step up
Half key step upHalf key step up
Half key step downHalf key step down
Full key step downFull key step down
Search Paypal
auto scroll beats size up size down change color hide chords drawings
tab show chords e-chords YouTube Clip e-chords hide all tabs e-chords go to top tab