Short Stack

home > Short Stack

Gravity Tab

Short Stack

Difficulty: nolevelnolevel

by PAULLET3

tuner correct add songbook print version text version save to e-mail
chordsukulelecavacokeyboardtabbassdrumsharmonicsflute Guitar Pro
chords

Gravity

  		Intro (Verse): 
e|---------------------------------------| 
B|----------------------------13---------| 
G|--13-12----10-8-------13-12------------| 
D|--------10------10-8-----------10-12---| 
A|---------------------------------------| 
E|---------------------------------------|x3 


Chorus: 
"Gravity..." 

Guitar 1: 
e|---------------------------------------------------------------------------| 
B|---------------------------------------------------------------------------| 
G|----------6~-6~------------------------------------------------------------| 
D|--6~--6~--6~-6~------------------------------------------------------------| 
A|--6~--6~--4~-4~------------------------------------------------------------| 
E|--4~--4~-------------------------------------------------------------------| 

Guitar 2: 
e|---------------------------------------------------------------------------| 
B|---------------------------------------------------------------------------| 
G|---------------------------------------------------------------------------| 
D|---------------------------------------------------------------------------| 
A|---------------------------------------------------------------------------| 
E|---------------------------------------------------------------------------| 


Verse: 
e|---------------------------------------| 
B|----------------------------13---------| 
G|--13-12----10-8-------13-12------------| 
D|--------10------10-8-----------10-12---| 
A|---------------------------------------| 
E|---------------------------------------|x2 

e|--------------------------------------------------------------| 
B|------6-6----8-8------9-9-13-13-9-9--------6-6-----8-8-9x32---|<(you could pick it 16x instead at half speed) 
G|----6------8-------10--------------------6-------8------------| 
D|--------------------------------------------------------------| 
A|--4------6-------8---------------------4-------6--------------| 
E|--------------------------------------------------------------| 


Chorus 


Solo: 
e|---------------------------------------------------------| 
B|--------------/13-13x2-13x3-------------/13-13-11-11-9---| 
G|--/10-10-10x3---------------/10-10-10x3------------------| 
D|---------------------------------------------------------| 
A|---------------------------------------------------------| 
E|---------------------------------------------------------| 

e|---------------------------------------------------------| 
B|--------------/13-13x2-13x3-------------/13-13-11-11-9---| 
G|---------------------------------------------------------| 
D|--/11-11-11x3---------------/11-11-11x3------------------| 
A|---------------------------------------------------------| 
E|---------------------------------------------------------| 

e|---------------------------------------------------------| 
B|--------------/13-13x2-13x3-------------/13-13-11-11-9---| 
G|--/10-10-10x3---------------/10-10-10x3------------------| 
D|---------------------------------------------------------| 
A|---------------------------------------------------------| 
E|---------------------------------------------------------| 

e|----------------------------------------| 
B|--/14x4-13x3-----------/14x4-13x3-16b---| 
G|-------------10x3-8x4-------------------| 
D|----------------------------------------| 
A|----------------------------------------| 
E|----------------------------------------| 


Pre-Chorus 
e|--------------------------------------------------------------| 
B|------6-6----8-8------9-9-13-13-9-9--------6-6-----8-8-9x26---| 
G|----6------8-------10--------------------6-------8------------| 
D|--------------------------------------------------------------| 
A|--4------6-------8---------------------4-------6--------------| 
E|--------------------------------------------------------------| 


Chorus 


Outro: 
"All I wanna do is die alone with you..." 
e|-----------------------------------------------------------------| 
B|-----------------------------------------------------------------| 
G|--13-13-13-13-13x4-12-12-12-------10-10-10-10-8x4----------------| 
D|----------------------------10-10-----------------10-10-10-8-8---| 
A|-----------------------------------------------------------------| 
E|-----------------------------------------------------------------| 

e|-----------------------------------------------------------------------| 
B|----------------------------13-13--------------------------------------| 
G|--13-13-13-13-13x4-12-12-12------10-10-10-10x2-13-15-13-12-13-12-10~---| 
D|-----------------------------------------------------------------------| 
A|-----------------------------------------------------------------------| 
E|-----------------------------------------------------------------------| 

e|--------------------------------------------------------------| 
B|------6-6----8-8------9-9-13-13-9-9--------6-6-6/8-----8-9~---| 
G|----6------8-------10--------------------6---------8----------| 
D|-----------------------------------------------------8--------| 
A|--4------6-------8---------------------4----------------------| 
E|--------------------------------------------------------------| 



************************************ 

| /   slide up 
| \   slide down 
| h   hammer-on 
| p   pull-off 
| ~   vibrato 
| +   harmonic 
| x   Mute note 
| b   Bend 
| pb  Pre-bend 
| br  Bend release 
| pbr Pre-bend release 
| brb Bend release bend 

************************************ 
	  

Search Paypal
auto scroll beats size up size down change color hide chords drawings
tab show chords e-chords YouTube Clip e-chords hide all tabs e-chords go to top tab