Short Stack

In This Place

Short Stack

tabs

by  PAULLET3

save to print version add songbook text version e-mail correct tuner
chordsukulelecavacokeyboardtabbassdrumsharmonicaflute Guitar Pro
close

there isn't a video lesson for this song

chords

In This Place

	  		Intro: 
"In this place we lie..." 
e---------------| 
B---------------| 
G-----7--5------| 
D--2--7--5--7---| 
A--2--5--3--7---| 
E--0--------5---| 

Chorus: 
"So will you lay..." 
e---------------------| 
B---------------------| 
G--9--7--5--4--5--7---| 
D--9--7--5--4--5--7---| 
A--7--5--3--2--3--5---| 
E---------------------| x2 

Riff: 
e--------------------------------------| 
B--------------------------------------| 
G---------4-7--------4-7----5-4h5-5~---| 
D----5----------5---------5------------| 
A--------------------------------------| 
E--0---0------0---0-----0--------------| 


*Just bass for second verse* 

Chorus 


Bridge: 
"And we'll go!" 
e-----------------------------------------------| 
B-----------------------------------------------| 
G--9---9---9----7---7---7----5----4---5---7-----| 
D--9---9---9----7---7---7----5----4---5---7-----| 
A--7x4-7x4-7x2--5x4-5x4-5x2--3x8--2x3-3x3-5x2---| 
E-----------------------------------------------| x2 

Solo: 
e----------------------------------------------------------------------| 
B----------------------------------------------------------------------| 
G--9x12/12x4\7x8/12\5x12-4x4-5x4-7--9x12/12x4\7x8----------------------| 
D-------------------------------------------------5-7x12-5x4-4x4-------| 
A----------------------------------------------------------------5x2---| 
E----------------------------------------------------------------------| 

Chorus 

Outro: 
e--------------| 
B--------------| 
G----4---------| 
D--5---5-4-5---| 
A--------------| 
E--------------|x8 
		  

See also:

tabs Idir - A Vava Inouva tabs Misc Computer Games - Mii Channel Music tabs Prototype - The Way It Ends tabs Misc Television - Marvels The Punisher - Main Theme tabs Misc Computer Games - Assassins Creed Black Flag - Randy Dandy O tabs Andy James - Separation
e-chords

Other versions:

tabs Short Stack - In This Place
auto scroll beats size up size down change color hide chords drawings
tab show chords e-chords YouTube Clip e-chords hide all tabs e-chords go to top tab

share