Short Stack

Amy

Short Stack

tabs

by  EDSOOLIVEIRA

save to print version add songbook text version e-mail correct tuner
chordsukulelecavacokeyboardtabbassdrumsharmonicaflute Guitar Pro
close

there isn't a video lesson for this song

chords

Amy

	  		Verse: 
"I spent all last night on the telephone..." 
e|------| 
B|------| 
G|--9---| 
D|--x---| 
A|--7---| 
E|------|(Strumming is weird :P) 


"You said oh boy I'd rather leave..." 
e|---------------| 
B|---------------| 
G|-----9---------| 
D|--7--x--9--7---| 
A|--7--7--9--7---| 
E|--5-----7--5---| 



Intro 

Verse 


Chorus: 
"It's what you do to me..." 
e|------------------------------------------------------| 
B|------------------------------------------------------| 
G|--9-------------------------9-------------------------| 
D|--9-----9-----11-----7------9-----9-----11-----7------| 
A|--7x16--9-----11-----7------7x16--9-----11-----7------| 
E|--------7x16---9x16--5x16---------7x16---9x16--5x16---| 


"Spent all my cash on comic books..." 
e|------| 
B|------| 
G|--9---| 
D|--x---| 
A|--7---| 
E|------| 

"You said you loved all that you see..." 
e|---------------| 
B|---------------| 
G|-----9---------| 
D|--7--x--9--7---| 
A|--7--7--9--7---| 
E|--5-----7--5---| 



Chorus 


Bridge: 
e|----------------------------| 
B|----------------------------| 
G|--9-----------9-----11------| 
D|--x-----2-----x------x------| 
A|--7x32--2-----7x16---9x16---| 
E|--------0x32----------------| 


Chorus 

Verse 


End with: 
e|---------------| 
B|---------------| 
G|----------9~---| 
D|--9~--7~--9~---| 
A|--9~--7~--7~---| 
E|--7~--5~-------| 


************************************ 

| /   slide up 
| \   slide down 
| h   hammer-on 
| p   pull-off 
| ~   vibrato 
| +   harmonic 
| x   Mute note 
| b   Bend 
| pb  Pre-bend 
| br  Bend release 
| pbr Pre-bend release 
| brb Bend release bend 

************************************ 
		  

See also:

tabs Idir - A Vava Inouva tabs Misc Computer Games - Mii Channel Music tabs Prototype - The Way It Ends tabs Misc Television - Marvels The Punisher - Main Theme tabs Misc Computer Games - Assassins Creed Black Flag - Randy Dandy O tabs Andy James - Separation
e-chords

Other versions:

tabs Pure Prairie League - Amy tabs Short Stack - Amy tabs Little Texas - Amy's Back In Austin
auto scroll beats size up size down change color hide chords drawings
tab show chords e-chords YouTube Clip e-chords hide all tabs e-chords go to top tab

share