Short Stack

Jack The Ripper

Short Stack

tabs

by  TERCMORAES

save to print version add songbook text version e-mail correct tuner
chordsukulelecavacokeyboardtabbassdrumsharmonicaflute Guitar Pro
close

there isn't a video lesson for this song

chords

Jack The Ripper

	  		

Tuning: EADGBe (standard) 

Intro (no lyrics) 
e|---------------------------------------------------------------------------| 
B|---------------------------------------------------------------------------| 
G|---------------------------------------------------------------------------| X4 
D|--4--5--22-----------------------------------------------------------------| 
A|--4--5--22-----------------------------------------------------------------| 
E|--2--3--00-----------------------------------------------------------------| 

verse 1 ("She wore a pink sweater...") is the same as the intro but played twice. 


Pre-Chorus ("Ooh Ooh Ooh, I'm gonna die a believer...") is the same as the intro but played once. 


Chorus ("Now I'll be winter and you'll be content...")   
e|---------------------------------------------------------------------------| 
B|---------------------------------------------------------------------------| 
G|----------------------55555555--4444--5--4----------------------55555555---|    
D|--44444444--55555555--55555555--4444--5--4--44444444--55555555--55555555---| 
A|--44444444--55555555--33333333--2222--3--2--44444444--55555555--33333333---| 
E|--22222222--33333333------------------------22222222--33333333-------------| 

Chorus continued 
e|---------------------------------------------------------------------------| 
B|---------------------------------------------------------------------------| 
G|--88888888-----------------------------------------------------------------| X1 
D|--88888888-----------------------------------------------------------------| 
A|--66666666-----------------------------------------------------------------| 
E|---------------------------------------------------------------------------| 

Post-Chorus ("I'm bulletproof, oh honey I'm bulletproof...")  
e|---------------------------------------------------------------------------| 
B|---------------------------------------------------------------------------| 
G|---------------------------------------------------------------------------| X1 
D|--4--5--4--5--2------------------------------------------------------------| 
A|--4--5--4--5--2------------------------------------------------------------| 
E|--2--3--2--3--0------------------------------------------------------------| 

verse 2 ("Rock solid, I can taste the fear in the air...") is the same as the intro but played 
once. 

Chorus X1  

Chorus part 2 ("Dance like a stripper it's money well spent...") 
e|---------------------------------------------------------------------------| 
B|---------------------------------------------------------------------------| 
G|----------------------55555555--4444--5--4----------------------55555555---| 
D|--44444444--55555555--55555555--4444--5--4--44444444--55555555--55555555---| 
A|--44444444--55555555--33333333--2222--3--2--44444444--55555555--33333333---| 
E|--22222222--33333333------------------------22222222--33333333-------------| 

Chorus part 2 continued 
e|---------------------------------------------------------------------------| 
B|---------------------------------------------------------------------------| 
G|--8888888888888888---------------------------------------------------------| X1 
D|--8888888888888888---------------------------------------------------------| 
A|--6666666666666666---------------------------------------------------------| 
E|---------------------------------------------------------------------------| 

Bridge ("Hey, oh...")   
e|---------------------------------------------------------------------------| 
B|---------------------------------------------------------------------------| 
G|--------------5h6--5h6------------------5h6--5h6---------------------------|  
D|--5h6--5h6--------------6--5h6--5h6---------------6--8888--7777--6666--5555| X2 
A|------------6------------------------6---------------8888--7777--6666--5555| 
E|-----------------------------------------------------6666--5555--4444--3333| 

Bridge continued (Play after 2nd time only) 
e|---------------------------------------------------------------------------| 
B|---------------------------------------------------------------------------| 
G|---------------------------------------------------------------------------| 
D|--4~--5~--6~--4--5--22-----------------------------------------------------| 
A|--4~--5~--6~--4--5--22-----------------------------------------------------| 
E|--2~--3~--4~--2--3--00-----------------------------------------------------| 

verse 3 ("Rock solid, I can see you down on your knees...") is the same as the intro but played 
once. 

Chorus X2 

End on the note below: 
e|---------------------------------------------------------------------------| 
B|---------------------------------------------------------------------------| 
G|---------------------------------------------------------------------------| X1 
D|--2~-----------------------------------------------------------------------| 
A|--2~-----------------------------------------------------------------------| 
E|--0~-----------------------------------------------------------------------| 

************************************ 
| h   hammer-on 
| ~   let ring  
************************************ 
		  

See also:

tabs Idir - A Vava Inouva tabs Misc Computer Games - Mii Channel Music tabs Prototype - The Way It Ends tabs Misc Television - Marvels The Punisher - Main Theme tabs Misc Computer Games - Assassins Creed Black Flag - Randy Dandy O tabs Andy James - Separation
e-chords

Other versions:

tabs My Chemical Romance - Jack the ripper tabs The White Stripes - Jack The Ripper tabs Link Wray - Jack The Ripper tabs Short Stack - Jack The Ripper
auto scroll beats size up size down change color hide chords drawings
tab show chords e-chords YouTube Clip e-chords hide all tabs e-chords go to top tab

share