Four Year Strong

home > Four Year Strong

Gravity Tab

Four Year Strong

Difficulty: nolevelnolevel

by ubirbomfim

tuner correct add songbook print version text version save to e-mail
chordsukulelecavacokeyboardtabbassdrumsharmonicsflute Guitar Pro
chords

Gravity

  		Intro: 
D|------------------------------------|----------| 
G|------------------------------------|----------| 
C|--4--4-------4-----------------(3x)-|----------| 
F|--4--4---4-6------------------------|--6--6----| 
A|--2--2------------------------------|--6--6----| 
D|---------------0-0-0-0---0-0-0------|--4--4----| 

D|------------------------------------|------------------| 
G|------------------------------------|------------------| 
C|--4--4-------4-----------------(3x)-|------------------| 
F|--4--4---4-6------------------------|--6--6------------| 
A|--2--2------------------------------|--6--6---6-4------| 
D|---------------0-0-0-0---0-0-0------|--4--4-------6----| 

D|-----------------------------------------|------------------| 
G|-----------------------------------------|------------------| 
C|----16---16---15/13--11---11/13/9---(3x)-|------------------| 
F|-----------------------------------------|--6--6------------| 
A|----14---14---13/11---9----9/11/7--------|--6--6---6-4------| 
D|--0----0----0-----------0----------------|--4--4-------6----| 

verse 1: 
D|-------------------------------------------------------------------| 
G|-------------------------------------------------------------------| 
C|-------------------------------------------------------------------| 
F|--------------------------------4--6-6-6-6-6-6-4--6-6-6-6-4--------| 
A|--2-2-2-2-2-2-2-6-6-4-4-4-4-4-4-----------------------------6-4----| 
D|-------------------------------------------------------------------| 

D|-----------------------------------------------------------------| 
G|-----------------------------------------------------------------| 
C|------------------------------------------------------------6----| 
F|--------------------------------4--6-6-6-6-6-6-4--6-6-6-6-9------| 
A|--2-2-2-2-2-2-2-6-6-4-4-4-4-4-4----------------------------------| 
D|-----------------------------------------------------------------| 

D|--------------------------------------------------------| 
G|--------------------------------------------------------| 
C|--4---4-4-4---8-8--6-6-6--------------------------------| (2x) 
F|--4---4-4-4---8-8--6-6-6---11/13/11/13--13-13--4--------| 
A|--2---2-2-2---6-6--4-4-4----9/11/-9/11--11-11----6-4----| 
D|--------------------------------------------------------| 

Pre-Chorus Lead: 
D|----------------------------------------| 
G|----------------------------------------|  
C|--8------------11------------8-8--------| (3x) 
F|----9-9-11-9-9----9-9-11-9-9-----9-9----| 
A|----------------------------------------| 
D|----------------------------------------| 

D|----------------------------------| 
G|----------------------------------|  
C|--8------------11------------8----|  
F|----9-9-11-9-9----9-9-11-9-9-9----| 
A|----------------------------------| 
D|----------------------------------| 

Pre-Chorus Rhythm: 
D|------------------------| 
G|------------------------| 
C|-------------------4----| (2x) 
F|--2-------6--------4----| 
A|--2-------6--------2----| 
D|--0-------4-------------| 

Chorus 1: 
D|----------------------------------------------------------------------------| 
G|----------------------------------------------------------------------------| 
C|--2--------4--------6---6-6-6-6---6-6-6-6---6--4---4-4-4-4---4-4-4-4---4----| 
F|--2-(16x)--4-(16x)--6---6-6-6-6---6-6-6-6---6--4---4-4-4-4---4-4-4-4---4----| 
A|--0--------2--------4---4-4-4-4---4-4-4-4---4--2---2-2-2-2---2-2-2-2---2----| 
D|----------------------------------------------------------------------------| 

D|-------------------------------------------------------------------------| 
G|-------------------------------------------------------------------------| 
C|--2--------4-------6-----------------------------------------------------| 
F|--2-(16x)--4-(8x)--6-(8x)--2---2-2-2-2---2-2-2-2---2--2---2-2-2-2---2----| 
A|--0--------2-------4-------2---2-2-2-2---2-2-2-2---2--2---2-2-2-2---2----| 
D|---------------------------0---0-0-0-0---0-0-0-0---0--0---0-0-0-0---0----| 

Intro 

verse 2: 
D|-------------------------------------------------------------------| 
G|-------------------------------------------------------------------| 
C|-------------------------------------------------------------------| 
F|--------------------------------4--6-6-6-6-6-6-4--6-6-6-6-4--------| 
A|--2-2-2-2-2-2-2-6-6-4-4-4-4-4-4-----------------------------6-4----| 
D|-------------------------------------------------------------------| 

D|------------------------------------------------------------------| 
G|------------------------------------------------------------------| 
C|------------------------------------------------------------6-8---| 
F|--------------------------------4--6-6-6-6-6-6-4--6-6-6-6-9-------| 
A|--2-2-2-2-2-2-2-6-6-4-4-4-4-4-4-----------------------------------| 
D|------------------------------------------------------------------| 

D|-----------------------------------------------------------| 
G|-----------------------------------------------------------| 
C|--4---4444-4-4---8-8--6-6-6--------------------------------| (2x) 
F|--4---4444-4-4---8-8--6-6-6---11/13/11/13--13-13--4--------| 
A|--2---2222-2-2---6-6--4-4-4----9/11/-9/11--11-11----6-4----| 
D|-----------------------------------------------------------| 

Pre-Chorus 

Chorus 2: (slightly different ending than Chorus 1) 
D|----------------------------------------------------------------------------| 
G|----------------------------------------------------------------------------| 
C|--2--------4--------6---6-6-6-6---6-6-6-6---6--4---4-4-4-4---4-4-4-4---4----| 
F|--2-(16x)--4-(16x)--6---6-6-6-6---6-6-6-6---6--4---4-4-4-4---4-4-4-4---4----| 
A|--0--------2--------4---4-4-4-4---4-4-4-4---4--2---2-2-2-2---2-2-2-2---2----| 
D|----------------------------------------------------------------------------| 

D|-----------------------------------------------------------------------------------| 
G|-----------------------------------------------------------------------------------| 
C|--2--------4-------6---------------------------------------------------------------| 
F|--2-(16x)--4-(8x)--6-(8x)--2---2-2-2-2---2-2-2-2---2--2---2-2-2-2---2-2-2-2---2----| 
A|--0--------2-------4-------2---2-2-2-2---2-2-2-2---2--2---2-2-2-2---2-2-2-2---2----| 
D|---------------------------0---0-0-0-0---0-0-0-0---0--0---0-0-0-0---0-0-0-0---0----| 

Bridge Lead: 
D|--------------------------------------------------------------| 
G|--------------------------------------------------------------|  
C|--4-4-4-4----8/9/8--9-8--8-8-------------8----------8----9----| (4x) 
F|--4-4-4-4----9------9-9-11-9--6-6-6-6----9/11/9--11---11------| Twice as main riff, 
A|--2-2-2-2---------------------6-6-6-6-------------------------| twice as secondary 
D|------------------------------4-4-4-4-------------------------| 

Bridge Rhythm: 
D|--------------------------------------------------------------| 
G|--------------------------------------------------------------| 
C|--4-4-4-4-----------------------------------------------------| (2x) 
F|--4-4-4-4---------------------6-6-6-6-------------------------| 
A|--2-2-2-2---------------------6-6-6-6-------------------------| 
D|------------------------------4-4-4-4-------------------------| 

D|---------------------------------------------------------------------| 
G|---------------------------------------------------------------------| 
C|--4-4-4-4-4-4-4-4-4-4-4-4-4-4-4-4------------------------------------| 
F|--4-4-4-4-4-4-4-4-4-4-4-4-4-4-4-4-6-6-6-6-6-6-6-6-6-6-6-6-6-6-6-6----| 
A|--2-2-2-2-2-2-2-2-2-2-2-2-2-2-2-2-6-6-6-6-6-6-6-6-6-6-6-6-6-6-6-6----| 
D|----------------------------------4-4-4-4-4-4-4-4-4-4-4-4-4-4-4-4----| 

Pre-Chorus 

Chorus 3: 
D|-----------------------------------------| 
G|-----------------------------------------| 
C|------------------------------------4----| 
F|------------------------------------4----| 
A|--0-(16x)--2-(16x)--4-(16x)??2-(8x)--2----| 
D|-----------------------------------------| 

D|-----------------------------------------------------------------------------------| 
G|-----------------------------------------------------------------------------------| 
C|--2--------4-------6---------------------------------------------------------------| 
F|--2-(16x)--4-(8x)--6-(8x)--2---2-2-2-2---2-2-2-2---2--2---9-9-9-9---9-9-9-9---9----| 
A|--0--------2-------4-------2---2-2-2-2---2-2-2-2---2--2---7-7-7-7---7-7-7-7---7----| 
D|---------------------------0---0-0-0-0---0-0-0-0---0--0---0-0-0-0---0-0-0-0---0----| 

D|----------------------------------------------------------------------------| 
G|----------------------------------------------------------------------------| 
C|--2--------4--------6---6-6-6-6---6-6-6-6---6--4---4-4-4-4---4-4-4-4---4----| 
F|--2-(16x)--4-(16x)--6---6-6-6-6---6-6-6-6---6--4---4-4-4-4---4-4-4-4---4----| 
A|--0--------2--------4---4-4-4-4---4-4-4-4---4--2---2-2-2-2---2-2-2-2---2----| 
D|----------------------------------------------------------------------------| 

D|-------------------------------------------------------------------------| 
G|-------------------------------------------------------------------------| 
C|--2--------4-------6-----------------------------------------------------| 
F|--2-(16x)--4-(8x)--6-(8x)--2---2-2-2-2---2-2-2-2---2--2---2-2-2-2---2----| 
A|--0--------2-------4-------2---2-2-2-2---2-2-2-2---2--2---2-2-2-2---2----| 
D|---------------------------0---0-0-0-0---0-0-0-0---0--0---0-0-0-0---0----| 

End with Intro 
	  

Search Paypal
auto scroll beats size up size down change color hide chords drawings
tab show chords e-chords YouTube Clip e-chords hide all tabs e-chords go to top tab