Gyroscope

Lightning

Gyroscope

tabs

save to print version add songbook text version e-mail correct tuner
chordsukulelecavacokeyboardtabbassdrumsharmonicaflute Guitar Pro
close

there isn't a video lesson for this song

chords

Lightning

	  		Australia 
Gyroscope - Lightning - guitar(rhythm) 
 
by dave([email protected]) 
 
x:mute note 
~:let ring 
 
intro x2 
e|-------------------------------------------------------------------- 
b|-------------------------------------------------------------------- 
g|-9--9-99--9-98--8-89--9-96--6-66--6-66--6-66--6-6------------------- 
d|-------------------------------------------------------------------- 
a|-7--7-77--7-76--6-67--7-74--4-44--4-44--4-44--4-4------------------- 
e|-------------------------------------------------------------------- 
 
main riff x2 
e|-------------------------------------------------------------------- 
b|-------------------------------------------------------------------- 
g|-6--66-6--66-6--66-4-4-4-2--22-2--22-9--99-7-7-7-------------------- 
d|-6--66-6--66-6--66-4-4-4-2--22-2--22-------------------------------- 
a|-4--44-4--44-4--44-2-2-2-0--00-0--00-7--77-5-5-5-------------------- 
e|-------------------------------------------------------------------- 
 
e|-------------------------------------------------------------------- 
b|-------------------------------------------------------------------- 
g|-6--66-6--66-6--66-4-4-4-2--22-2--22-999-11-9-8-9-8----------------- 
d|-6--66-6--66-6--66-4-4-4-2--22-2--22-------------------------------- 
a|-4--44-4--44-4--44-2-2-2-0--00-0--00-777--9-7-6-7-6----------------- 
e|-------------------------------------------------------------------- 
 
verse riff 
e|-------------------------------------------------------------------- 
b|-------------------------------------------------------------------- 
g|-2--22-2-2-2-2--22-2-2-2-4--44-4-4-4-4--44-4-4-4-6~----------4-4-4-- 
d|-2--22-2-2-2-2--22-2-2-2-4--44-4-4-4-4--44-4-4-4-6~----------4-4-4-- 
a|-0--00-0-0-0-0--00-0-0-0-2--22-2-2-2-2--22-2-2-2-4~----------2-2-2-- 
e|-------------------------------------------------------------------- 
 
e|-------------------------------------------------------------------- 
b|-------------------------------------------------------------------- 
g|-2--22-2-2-2-2--22-2-2-2-4--44-4-4-4-4--44-4-4-4-6~----------6------ 
d|-2--22-2-2-2-2--22-2-2-2-4--44-4-4-4-4--44-4-4-4-6~----------6------ 
a|-0--00-0-0-0-0--00-0-0-0-2--22-2-2-2-2--22-2-2-2-4~----------4------ 
e|-------------------------------------------------------------------- 
 
then main riff x2 
 
then let feedback ring for a while 
 
bridge 1 
e|------------------------------------------------------------ 
b|------------------------------------------------------------ 
g|------------------------------------------------------------ 
d|------------------------------------------------------------ 
a|-6-6-6-6-6-6-7-7-7-7-7-7-6-6-6-6-6-6-7-7-7-7-7-7-6-6-6-6-6-6 
e|------------------------------------------------------------ 
 
e|-------------------------------------------------------------------- 
b|-------------------------------------------------------------------- 
g|-9-9-9-9-9-9-11-11-11-11-11-11-13-13-13-14-14-14-------------------- 
d|-------------------------------------------------------------------- 
a|-7-7-7-7-7-7--9--9--9--9--9--9-11-11-11-12-12-12-------------------- 
e|-------------------------------------------------------------------- 
 
back to verse riff 
 
bridge 2 
e|-------------------------------------------------------------------- 
b|-------------------------------------------------------------------- 
g|-6~----------------------------------------------------------------- 
d|-6~------------------------6-4--------6-4--------------------------- 
a|-4~----------------------4----------4------------6-4--------6-4----- 
e|-----------------------------------------------4----------4--------- 
 
e|------------------------------------------------------------ 
b|------------------------------------------------------------ 
g|------------------------------------------------------------ 
d|------------------------------------------------------------ 
a|-7-7-7-7-7-7-6-6-6-7-7-7-4-4-4-4-4-4-4-4-4-4-4-4-7-7-7-7-7-7 
e|------------------------------------------------------------ 
 
e|-------------------------------------------------------------------- 
b|-------------------------------------------------------------------- 
g|--------------13-13-13-13-13-13-14-14-14-14-14-14------------------- 
d|-------------------------------------------------------------------- 
a|--9-9-9-9-9-9-11-11-11-11-11-11-12-12-12-12-12-12------------------- 
e|-------------------------------------------------------------------- 
 
then 
e|-------------------------------------------------------------------- 
b|-------------------------------------------------------------------- 
g|-6--66-6-x-x-6--66-4-4-4-2--22-2--22-9--99-7-7-7-------------------- 
d|-6--66-6-x-x-6--66-4-4-4-2--22-2--22-------------------------------- 
a|-4--44-4-x-x-4--44-2-2-2-0--00-0--00-7--77-5-5-5-------------------- 
e|-------------------------------------------------------------------- 
 
e|-------------------------------------------------------------------- 
b|-------------------------------------------------------------------- 
g|-6--66-6-x-x-6--66-4-4-4-2--22-2--22-999-11-9-8-9-8----------------- 
d|-6--66-6-x-x-6--66-4-4-4-2--22-2--22-------------------------------- 
a|-4--44-4-x-x-4--44-2-2-2-0--00-0--00-777--9-7-6-7-6----------------- 
e|-------------------------------------------------------------------- 
 
verse riff 
 
let final note ring 
e|-------------------------------------------------------------------- 
b|-------------------------------------------------------------------- 
g|-6~----------------------------------------------------------------- 
d|-6~----------------------------------------------------------------- 
a|-4~----------------------------------------------------------------- 
e|-------------------------------------------------------------------- 
 

		  

See also:

tabs Simon & Garfunkel - Sounds of silence tabs R.E.M. - Everybody Hurts tabs Guns N' Roses - Knockin' On Heaven's Door tabs John Mayer - Belief tabs The Wonders - That Thing You Do tabs Cheap Trick - The Flame
e-chords

Other versions:

tabs Gyroscope - Lightning tabs State Champs - Lightning tabs Pearl Jam - Lightning Bolt tabs Live - Lightning Crashes tabs The Summer Set - Lightning In A Bottle tabs Mischief Brew - Lightning Knock The Power Out
auto scroll beats size up size down change color hide chords drawings
tab show chords e-chords YouTube Clip e-chords hide all tabs e-chords go to top tab

share