State Champs

Lightning

State Champs

tabs

by  GUSTSILVA

save to print version add songbook text version e-mail correct tuner
chordsukulelecavacokeyboardtabbassdrumsharmonicaflute Guitar Pro
close

there isn't a video lesson for this song

chords

Lightning

	  		Intro & verse 1 
D#|------------------------------------------------------------------------------------------------| 
A#|---------12---------12-----------12----------12------------12--------12----------14--------14---| 
F#|-----11----------11----------11----------11------------11---------11----------11-------11-------| 
C#|--14----------14---------14----------14------------13----------13----------11-------11----------| 
G#|------------------------------------------------------------------------------------------------| 
C#|------------------------------------------------------------------------------------------------| 


Chorus 
D#|---------------------------------------------------------------| 
A#|---------------------------------------------------------------| 
F#|--4---4----4-4-4-4----------------9---9----9-9-9-9-------------| 
C#|--4---4----4-4-4-4---6--6-6-6-6---9---9----9-9-9-9----4-4-4-4--| 
G#|--2---2----2-2-2-2---6--6-6-6-6---7---7----7-7-7-7----4-4-4-4--| 
C#|---------------------6--6-6-6-6-----------------------4-4-4-4--| 

D#|---------------------------------------------------------------| 
A#|---------------------------------------------------------------| 
F#|--4---4----4-4-4-4----------------9---9------------------------| 
C#|--4---4----4-4-4-4---6--6-6-6-6---9---9---x-x-x-x---2----------| 
G#|--2---2----2-2-2-2---6--6-6-6-6---7---7---x-x-x-x---2----------| 
C#|---------------------6--6-6-6-6-----------x-x-x-x---2----------| 


verse 2 
D#|---------------------------------------------------------------| 
A#|---------------------------------------------------------------| 
F#|---------------------------------------------------------------| 
C#|--2-2-2-2-----2-2-2-2-------6-6-6-6-------4-4-4---4-4-4--------| 
G#|--2-2-2-2-----2-2-2-2-------6-6-6-6-------4-4-4---4-4-4--------| 
C#|--2-2-2-2-----2-2-2-2-------6-6-6-6-------4-4-4---4-4-4--------| 

D#|---------------------------------------------------------------| 
A#|---------------------------------------------------------------| 
F#|----------------------------4-4-4-4----------------------------| 
C#|--2-2-2-2-----2-2-2-2-------4-4-4-4-------4-4-4---4-4-4--------| 
G#|--2-2-2-2-----2-2-2-2-------2-2-2-2-------4-4-4---4-4-4--------| 
C#|--2-2-2-2-----2-2-2-2---------------------4-4-4---4-4-4--------| 

D#|---------------------------------------------------------------| 
A#|---------------------------------------------------------------| 
F#|---------------------------------------------------------------| 
C#|--2-2-2-2--2---2-2-2-2---2----6-6-6-6---6----4-4-4---4-4-4-----| 
G#|--2-2-2-2--2---2-2-2-2---2----6-6-6-6---6----4-4-4---4-4-4-----| 
C#|--2-2-2-2--2---2-2-2-2---2----6-6-6-6---6----4-4-4---4-4-4-----| 

D#|---------------------------------------------------------------| 
A#|---------------------------------------------------------------| 
F#|------------------------------4-4-4-4---4----------------------| 
C#|--2-2-2-2--2---2-2-2-2--2-----4-4-4-4---4----4-4-4---4-4-4-----| 
G#|--2-2-2-2--2---2-2-2-2--2-----2-2-2-2---2----4-4-4---4-4-4-----| 
C#|--2-2-2-2--2---2-2-2-2--2--------------------4-4-4---4-4-4-----| 

D#|---------------------------------------------------------------| 
A#|---------------------------------------------------------------| 
F#|--13-13-13-13-11-11-11-11--16-16-16-16-15-15-11-11-------------| 
C#|---------------------------------------------------------------| 
G#|--11-11-11-11-9--9--9--9---14-14-14-14-13-13-9--9--------------| 
C#|---------------------------------------------------------------| 

D#|---------------------------------------------------------------| 
A#|---------------------------------------------------------------| 
F#|---------------------------------------------------------------| 
C#|--6-6-6-6--6-6-6-6---4-4-4-4--4-4-4-4---2-2-2-2--2-2-2-2-------| 
G#|--6-6-6-6--6-6-6-6---4-4-4-4--4-4-4-4---2-2-2-2--2-2-2-2-------| 
C#|--6-6-6-6--6-6-6-6---4-4-4-4--4-4-4-4---2-2-2-2--2-2-2-2-------| 

Chorus 
D#|---------------------------------------------------------------| 
A#|---------------------------------------------------------------| 
F#|--4---4----4-4-4-4----------------9---9----9-9-9-9-------------| 
C#|--4---4----4-4-4-4---6--6-6-6-6---9---9----9-9-9-9----4-4-4-4--| 
G#|--2---2----2-2-2-2---6--6-6-6-6---7---7----7-7-7-7----4-4-4-4--| 
C#|---------------------6--6-6-6-6-----------------------4-4-4-4--| 

D#|---------------------------------------------------------------| 
A#|---------------------------------------------------------------| 
F#|--4---4----4-4-4-4----------------9---9----9-9-9-9-------------| 
C#|--4---4----4-4-4-4---6--6-6-6-6---9---9----9-9-9-9----4-4-4-4--| 
G#|--2---2----2-2-2-2---6--6-6-6-6---7---7----7-7-7-7----4-4-4-4--| 
C#|---------------------6--6-6-6-6-----------------------4-4-4-4--| 

D#|-----------------------------------------------------------------------------| 
A#|-----------------------------------------------------------------------------| 
F#|----------------------------------------4-4-4-4--4-4-4-4--8-8-8-8--8-8-8-8---| 
C#|--2-2-2-2--2-2-2-2---4-4-4-4--4-4-4-4---4-4-4-4--4-4-4-4--9-9-9-9--9-9-9-9---| 
G#|--2-2-2-2--2-2-2-2---4-4-4-4--4-4-4-4---2-2-2-2--2-2-2-2--6-6-6-6--6-6-6-6---| 
C#|--2-2-2-2--2-2-2-2---4-4-4-4--4-4-4-4----------------------------------------| 

D#|-----------------------------------------------------------------------------| 
A#|-----------------------------------------------------------------------------| 
F#|-----------------------------------------------------------------------------| 
C#|--2-2-2-2--2-2-2-2---4-4-4-4--4-4-4-4--6-6-6-6--6-6-6-6--6-6-6-6--6-6-6-6----| 
G#|--2-2-2-2--2-2-2-2---4-4-4-4--4-4-4-4--6-6-6-6--6-6-6-6--6-6-6-6--6-6-6-6----| 
C#|--2-2-2-2--2-2-2-2---4-4-4-4--4-4-4-4--6-6-6-6--6-6-6-6--6-6-6-6--6-6-6-6----| 


Bridge 
D#|--------------------------------------------0-------------------| 
A#|------------------------------------------------4---------------| 
F#|----------------------------------------------------4-----------| 
C#|--2-2----2---------------------2-2----2----------------2--------| 
G#|--2-2----2---------------------2-2----2-------------------------| 
C#|--2-2----2---------------------2-2----2-------------------------| 

D#|------------------------------------------------------------------------------| 
A#|--------------------------------------------------x-x-12-x-12--x-12-12-x-12---| 
F#|--------------------------------------------------x-x-11-x-11--x-11-11-x-11---| 
C#|--2-2----2---2-2-2--2-2-2-2-2-2-2------2-2----2---x-x-9--x-9---x-9--9--x-9----| 
G#|--2-2----2---2-2-2--2-2-2-2-2-2-2------2-2----2-------------------------------| 
C#|--2-2----2---2-2-2--2-2-2-2-2-2-2------2-2----2-------------------------------| 

D#|--------------------------------------------0-------------------| 
A#|------------------------------------------------4---------------| 
F#|----------------------------------------------------4-----------| 
C#|--2-2----2---------------------2-2----2----------------2--------| 
G#|--2-2----2---------------------2-2----2-------------------------| 
C#|--2-2----2---------------------2-2----2-------------------------| 

D#|------------------------------------------------------------------------------| 
A#|--------------------------------------------------x-x-12-x-12--x-12-12-x-12---| 
F#|--------------------------------------------------x-x-11-x-11--x-11-11-x-11---| 
C#|--2-2----2---2-2-2--2-2-2-2-2-2-2------2-2----2---x-x-9--x-9---x-9--9--x-9----| 
G#|--2-2----2---2-2-2--2-2-2-2-2-2-2------2-2----2-------------------------------| 
C#|--2-2----2---2-2-2--2-2-2-2-2-2-2------2-2----2-------------------------------| 

Chorus 
D#|---------------------------------------------------------------| 
A#|---------------------------------------------------------------| 
F#|--4---4----4-4-4-4----------------9---9----9-9-9-9-------------| 
C#|--4---4----4-4-4-4---6--6-6-6-6---9---9----9-9-9-9----4-4-4-4--| 
G#|--2---2----2-2-2-2---6--6-6-6-6---7---7----7-7-7-7----4-4-4-4--| 
C#|---------------------6--6-6-6-6-----------------------4-4-4-4--| 

D#|---------------------------------------------------------------| 
A#|---------------------------------------------------------------| 
F#|--4---4----4-4-4-4----------------9---9----9-9-9-9-------------| 
C#|--4---4----4-4-4-4---6--6-6-6-6---9---9----9-9-9-9----4-4-4-4--| 
G#|--2---2----2-2-2-2---6--6-6-6-6---7---7----7-7-7-7----4-4-4-4--| 
C#|---------------------6--6-6-6-6-----------------------4-4-4-4--| 

D#|-----------------------------------------------------------------------------| 
A#|-----------------------------------------------------------------------------| 
F#|----------------------------------------4-4-4-4--4-4-4-4--8-8-8-8--8-8-8-8---| 
C#|--2-2-2-2--2-2-2-2---4-4-4-4--4-4-4-4---4-4-4-4--4-4-4-4--9-9-9-9--9-9-9-9---| 
G#|--2-2-2-2--2-2-2-2---4-4-4-4--4-4-4-4---2-2-2-2--2-2-2-2--6-6-6-6--6-6-6-6---| 
C#|--2-2-2-2--2-2-2-2---4-4-4-4--4-4-4-4----------------------------------------| 

D#|-----------------------------------------------------------------------------| 
A#|-----------------------------------------------------------------------------| 
F#|-----------------------------------------------------------------------------| 
C#|--2-2-2-2--2-2-2-2---4-4-4-4--4-4-4-4--6-6-6-6--6-6-6-6--6-6-6-6--6-6-6-6----| 
G#|--2-2-2-2--2-2-2-2---4-4-4-4--4-4-4-4--6-6-6-6--6-6-6-6--6-6-6-6--6-6-6-6----| 
C#|--2-2-2-2--2-2-2-2---4-4-4-4--4-4-4-4--6-6-6-6--6-6-6-6--6-6-6-6--6-6-6-6----| 

D#|-----------------------------------------------------------------------------| 
A#|-----------------------------------------------------------------------------| 
F#|----------------------------------------4-4-4-4--4-4-4-4--8-8-8-8--8-8-8-8---| 
C#|--2-2-2-2--2-2-2-2---4-4-4-4--4-4-4-4---4-4-4-4--4-4-4-4--9-9-9-9--9-9-9-9---| 
G#|--2-2-2-2--2-2-2-2---4-4-4-4--4-4-4-4---2-2-2-2--2-2-2-2--6-6-6-6--6-6-6-6---| 
C#|--2-2-2-2--2-2-2-2---4-4-4-4--4-4-4-4----------------------------------------| 

D#|------------------------------------------------------------------------------| 
A#|------------------------------------------------------------------------------| 
F#|------------------------------------------------------------------------------| 
C#|--2-2----2---2-2-2--2-2-2-2-2-2-2------2-2----2-------------------------------| 
G#|--2-2----2---2-2-2--2-2-2-2-2-2-2------2-2----2-------------------------------| 
C#|--2-2----2---2-2-2--2-2-2-2-2-2-2------2-2----2-------------------------------| 
		  

See also:

tabs Ira! - Envelheço Na Cidade(Solo - Acustivo Mtv) tabs Deep Purple - No No No tabs Deep Purple - Black Night tabs Deep Purple - Smoke on the water(ver. 2) tabs Deep Purple - Since Youve Been Gone tabs Albert Hammond Jr - In My Room
e-chords

Other versions:

tabs Gyroscope - Lightning tabs State Champs - Lightning tabs Pearl Jam - Lightning Bolt tabs Live - Lightning Crashes tabs The Summer Set - Lightning In A Bottle tabs Mischief Brew - Lightning Knock The Power Out
auto scroll beats size up size down change color hide chords drawings
tab show chords e-chords YouTube Clip e-chords hide all tabs e-chords go to top tab

share