Mischief Brew

Lightning Knock The Power Out

Mischief Brew

tabs

by  ROBEPOIEL

save to print version add songbook text version e-mail correct tuner
chordsukulelecavacokeyboardtabbassdrumsharmonicaflute Guitar Pro
close

there isn't a video lesson for this song

chords

Lightning Knock The Power Out

	  		
Intro: 

  BASS RIFF 
G|----------------------------------------| 
D|---------------6------------------------| 
A|---6-7-6-4-6-7---7-6----6-7-6-4-6--7-7--| 
E|-4--------------------4-----------------| 

e|----------------------------------------| 
B|------------------------------6/8--9-9--| 
G|------------------------------6/8--9-9--| (2x) 
D|------------------------------6/8--9-9--| 
A|------------------------------4/6--7-7--| 
E|----------------------------------------| 


Verse 

e|------------------------------------------------------| 
B|-------6-6-6-------6-6-6-------9-9-9------------------| 
G|-5-5-5-6-6-6-5-5-5-6-6-6-8-8-8-9-9-9-8-8-8-8-8-8-8-8--| 
D|-6-6-6-6-6-6-6-6-6-6-6-6-9-9-9-9-9-9-9-9-9-9-9-9-9-9--| 
A|-6-6-6-4-4-4-6-6-6-4-4-4-9-9-9-7-7-7-9-9-9-9-9-9-9-9--| 
E|-4-4-4-------4-4-4-------7-7-7-------7-7-7-7-7-7-7-7--| 
   Paper-thin foundation..... 

e|----------------------------------------------------------------------------| 
B|----------------------9---------------------9-9-9-9-9-9---------------------| 
G|-6--------------------9---------8-8-8-8-8-8-9-9-9-9-9-9-8-8-8-8-8-8-8-8-8-8-| 
D|-7--------------------9---------9-9-9-9-9-9-9-9-9-9-9-9-9-9-9-9-9-9-9-9-9-9-| 
A|-7--------------------7---------9-9-9-9-9-9-7-7-7-7-7-7-9-9-9-9-9-9-9-9-9-9-| 
E|-5------------------------------7-7-7-7-7-7-------------7-7-7-7-7-7-7-7-7-7-| 
   So why are we so shocked... 


Chorus 

e|-------------------------------------------------------------------| 
B|-------------------------------------------------------------------| 
G|-------------------------------------------------------------------| 
D|-7--7--7--7--4--4--4--4--9--9--9--9--7--7--7--7--4--4--4--4--7--7--| 
A|-7--7--7--7--4--4--4--4--9--9--9--9--7--7--7--7--4--4--4--4--7--7--| 
E|-5--5--5--5--2--2--2--2--7--7--7--7--5--5--5--5--2--2--2--2--5--5--| 
   Lightning knock the power out.... 


e|-7-7-7-7-5-5-5-5---------7-7-7-7----------3-3-3-3-3-3----------------------| 
B|-7-7-7-7-5-5-5-5-9-9-9-9-7-7-7-7----------3-3-3-3-3-3-11-11-11-11-11-11-11-| 
G|-8-8-8-8-6-6-6-6-9-9-9-9-8-8-8-8--(2x)----4-4-4-4-4-4-11-11-11-11-11-11-11-| 
D|-9-9-9-9-7-7-7-7-9-9-9-9-9-9-9-9----------5-5-5-5-5-5-11-11-11-11-11-11-11-| 
A|-9-9-9-9-7-7-7-7-7-7-7-7-9-9-9-9----------5-5-5-5-5-5--9--9--9--9--9--9--9-| 
E|-7-7-7-7-5-5-5-5---------7-7-7-7----------3-3-3-3-3-3----------------------| 
                                        Right out... 


Bridge 

e|---------------------------------------------------------------------------| 
B|-------------------9-9-9-9-9-11-11----11-11-11----11-11-11----11-11-11-----| 
G|-8-8-8-------5-5-5-9-9-9-9-9-11-11----11-11-11----11-11-11----11-11-11-----| 
D|-9-9-9-9b--9-6-6-6-9-9-9-9-9-11-11--x-11-11-11--x-11-11-11--x-11-11-11-----| 
A|-9-9-9-6b--6-6-6-6-7-7-7-7-7--9--9--x--9--9--9--x--9--9--9--x--9--9--9-----| 
E|-7-7-7-------4-4-4---------------------------------------------------------| 
   The night stick cracks down... 


Solo 

e|-6---6-7--4-----------------------------------------------------------------4----------------| 
B|---7---9--5--5---------------------8h9--------------------------------------------4----------| 
G|-------------6-x-8h9p8-6-4-6-6/8-------8---6/8-6-7-8-------------4---4-6-6b---6--------------| 
D|---------------------------------6-------6-----6-7-8-9-8h9p9---6---6------------4---4-6------| 
A|-------------------------------------------------------------9-------------------------------| 
E|---------------------------------------------------------------------------------------------| 

e|---------------------------------------------------7-------7------------------------------------------| 
B|-------------------------------------------------9---9-7-9---9----------------------9-----------------| 
G|-4h6p4---------------6-7-8-------------------------------------7/---------------6/8---8-6-4-6p4-------| 
D|-------6-4---4-------6-7-8-9-8h9p8----9---------------------------------------------------------6-4-6-| 
A|-----------6-----6-----------------9-11---------------------------------------------------------------| 
E|---------------4---0----------------------------------------------------------------------------------| 
                                          One drop....               Kinda like... 


Outro 

e|--------------------7-7-7-7-7-7-7-7-7-7-7--| 
B|--------------------7-7-7-7-7-7-7-7-7-7-7--| 
G|-----9------------7h8-8-8-8-8-8-8-8-8-8-8--| 
D|---8-----6-9-8-11-7h9-9-9-9-9-9-9-9-9-9-9--| 
A|-9-----7----------7h9-9-9-9-9-9-9-9-9-9-9--| 
E|--------------------7-7-7-7-7-7-7-7-7-7-7--| 



************************************ 

| x  Dead note 
| h  Hammer-on 
| p  Pull-off 
| b  Bend 
| /  Slide up 

************************************ 
		  

See also:

tabs Blink 182 - Stay Together 4 the Kids tabs Blink 182 - Not Now tabs Bad Religion - Infected tabs Blink 182 - Always tabs Green Day - Holiday ( Easy Version) tabs Green Day - Basket Case (ver. 2)
e-chords

Other versions:

tabs Mischief Brew - Lightning Knock The Power Out
auto scroll beats size up size down change color hide chords drawings
tab show chords e-chords YouTube Clip e-chords hide all tabs e-chords go to top tab

share