Funeral For a Friend

Monsters Tab

Funeral For a Friend

Difficulty: nolevelnolevel

by bombaXXX

tuner correct add songbook print version text version save to e-mail
chordsukulelecavacokeyboardtabbassdrumsharmonicsflute Guitar Pro
close

there isn't a video lesson for this song

request
chords

Monsters

  		(intro) 

eb|------| 
bb|-(15)-| 
Gb|--14--| (adicione o traste em 15, e ouça musica para pegar o ritmo) 
db|---x--| 
ab|--12--| 
db|------| 

(verse) 
eb|-------------------------------------------| 
Bb|-------------------------------13-------15-| (toque esse riff 3x 
Gb|-14-14--14-14--14-14-----14-------14-------|  e depois a um tom abaixo 
Db|--x--x---x--x---x--x--12----12-------12----|  apenas uma vez). 
ab|-12-12--12-12--12-12-----------------------| 
db|-------------------------------------------| 

eb|-------------------------------------------| 
bb|-------------------------------------------| 
gb|-14-14--14-14--14-14--17-17-17-17-19-19-19-| 
db|--x--x---x--x---x--x---x--x--x--x--x--x--x-| 
ab|-12-12--12-12--12-12--15-15-15-15-17-17-17-| 
db|-------------------------------------------| 

(fim verse 1) 
eb|---------------------------| 
bb|---------------------------| 
gb|-14-----17----19----14-----| 
db|--x------x-----x-----x-----| 
ab|-12-x16-15-x3-17-x3-12-x10-| 
db|---------------------------| 

(Chorus) 
eb|-------------------------------------------------| 
bb|-------------------------------------------------| 
gb|-10-10-10-14-14-14-14-14-14-14-14-14-14-10-10-10-| 
db|--x--x--x--x--x--x--x--x--x--x--x--x--x--x--x--x-| 
ab|--8--8--8-12-12-12-12-12-12-12-12-12-12--8--8--8-| 
db|-------------------------------------------------| 

eb|--------------------------------------------| 
bb|----10---------------10---------------10----| 
gb|----------10-12-9----------10-12-9----------| 
db|-12----12---------12----12---------12----12-| 
ab|--------------------------------------------| 
db|--------------------------------------------| 

(bridge) 
eb|----------------------------------------------------| 
bb|----------------------------------------------------| 
gb|----------------------------------------------------| 
db|-5-x9------5-x9-7-x4------5-x13------5-x9-7-x4------| 
ab|------8-x7-----------8-x3-------8-x3-----------8-x3-| 
db|----------------------------------------------------| 

eb|---------------------------------| 
Bb|---------------------------------| (apenas toque, durando apenas 
Gb|-5-5-5-7-7-7---------------------|  5 a ultima vez através do riff) 
db|-------------5-5-5-7-7-7-------5-| 
ab|-------------------------8-8-8---| 
db|---------------------------------| 

(intro/e fim do verse 1) 
eb|-----------------------------------------------------------| 
bb|-----------------------------------------------------------| 
gb|-----------------------------------------------------------| 
db|-8-8-8-5-5-5-7-7-7-3-3-3-5-5-2-2-3-3-3-5-5-5-2-2-2-3-3-3-0-| 
ab|-8-8-8-5-5-5-7-7-7-3-3-3-5-5-2-2-3-3-3-5-5-5-2-2-2-3-3-3-0-| 
db|-8-8-8-5-5-5-7-7-7-3-3-3-5-5-2-2-3-3-3-5-5-5-2-2-2-3-3-3-0-| 

(verse) 
eb|-----------------------------------------------------------| 
bb|-----------------------------------------------------------| 
gb|-----------------------------------------------------------| 
db|-8-8-8-5-5-5-7-7-7-3-3-3-5-5-2-2-3-3-3-5-5-5-2-2-2-3-3-3-0-| 
ab|-8-8-8-5-5-5-7-7-7-3-3-3-5-5-2-2-3-3-3-5-5-5-2-2-2-3-3-3-0-| 
db|-8-8-8-5-5-5-7-7-7-3-3-3-5-5-2-2-3-3-3-5-5-5-2-2-2-3-3-3-0-| 
    . . . . . . . . . . . . . . . . . . . . . . . . . . . . 

(Chorus) 
eb|------------------| 
bb|------------------| 
gb|------------------| 
db|-8-----12----7----| 
ab|-8-x16-12-x9-7-x7-| 
db|-8-----12----7----| 
	  

Search Paypal
auto scroll beats size up size down change color hide chords drawings
tab show chords e-chords YouTube Clip e-chords hide all tabs e-chords go to top tab

share with facebook