Funeral For a Friend

home > Funeral For a Frie...

Damned If You Do, Dead If You Don't Tab

Funeral For a Friend

Difficulty: nolevelnolevel

by marcnagel

tuner correct add songbook print version text version save to e-mail
chordsukulelecavacokeyboardtabbassdrumsharmonicsflute Guitar Pro
chords

Damned If You Do, Dead If You Don't

  		INTRO 

eb|----------------------------------| 
Bb|-12h13p12-------------------------| 
Gb|----------12-----11h12p11---------| 
Db|-------------14-----------12/14~--| 
Ab|----------------------------------| 
Db|----------------------------------| 

eb|-------------------|-----------------------15---------| 
Bb|-------------------|-12-----------13-12-13----13-12~--| 
Gb|-11----------------|----12----/14---------------------| 
Db|----12-9----12-9~~-|-------14-------------------------| 
Ab|--------12---------|----------------------------------| 
Db|-------------------|----------------------------------| 

eb|----------------------------------| 
Bb|-12h13p12-------------------------| 
Gb|----------12-----11h12p11---------| 
Db|-------------14-----------12/14~--| 
Ab|----------------------------------| 
Db|----------------------------------| 



VERSE

eb|----------------------------------| 
Bb|----------------------------------| 
Gb|-----4----------------------------| 
Db|-5p2---------5p2-----4p0-7p4------| 
Ab|----------------------------------| 
Db|-------2-2-2-----2-2---------2-2--| 

eb|-------------|--------------------------| 
Bb|-------------|--------------------------| 
Gb|-------------|--------------------------| 
Db|-2---4---5---|------------------5---4-5-| 
Ab|---3---3---3-|-------5----2///7---7-----| 
Db|-------------|-5///9---9----------------|\ 
              |                            - play either of these parts, as 
              eb|--------------------------|/  they both sound like they could 
              Bb|--------------------------|   work. As far as i can tell, 
              Gb|--------------------------|   though, it's the lower part  
              Db|------------------5---4-5-|   with the hammer ons. 
              Ab|-------5----3h5h7---7-----| 
              Db|-5h7h9---9----------------| 

eb|----------------------------------| 
Bb|----------------------------------| 
Gb|-----4----------------------------| 
Db|-5p2---------5p2-----4p0-7p4------| 
Ab|----------------------------------| 
Db|-------2-2-2-----2-2---------2-2--| 

eb|-----------------|------------------| 
Bb|-----------------|------------------| 
Gb|-------------2---|------------------| 
Db|-2---4---5-------|-------------2-4--| 
Ab|---3---3---3---3-|-0-2-3-5-3-5------| x2 
Db|-----------------|------------------| 



PR-CHORUS 

eb|-------------------------------| 
Bb|-------------------------------| 
Gb|-----------------4-------------| 
Db|-----2-----5-----------5-------| 
Ab|-------------------------2-3-5-| 
Db|-2-2---2-2---2-2---2-2---------| 

eb|----------------------------------| 
Bb|----------------------------------| 
Gb|----------------------------------| 
Db|-4---0---4/5-----4-5--------------| 
Ab|-------------2-5-----------0-2-5--| x2 
Db|---2---2-------------2-4-5--------| 



CHORUS 

eb|----------------------------------------------------------| 
Bb|----------------------------------------------------------| 
Gb|-9-9-9-9-9-9--12-12-12-12-12-12--5-5-5-5-5-5--------------| 
Db|-9-9-9-9-9-9--12-12-12-12-12-12--5-5-5-5-5-5--5-5-5-7-7-7-| 
Ab|-7-7-7-7-7-7--10-10-10-10-10-10--3-3-3-3-3-3--3-3-3-5-5-5-| x2 
Db|----------------------------------------------------------| 

eb|-----------------------15---------| 
Bb|-12-----------13-12-13----13-12~--| 
Gb|----12----/14---------------------| 
Db|-------14-------------------------| 
Ab|----------------------------------| 
Db|----------------------------------| 

eb|----------------------------------| 
Bb|-12h13p12-------------------------| 
Gb|----------12-----11h12p11---------| 
Db|-------------14-----------12/14~--| 
Ab|----------------------------------| 
Db|----------------------------------| 


REPEAT VERSE 
REPEAT PRE-CHORUS 
REPEAT CHORUS 



BREAKDOWN 

eb|------|----------------------------------------------------| 
Bb|------|----------------------------------------------------| 
Gb|------|----------------------------------------------------| 
Db|-2~---|----------------------------------------------------| 
Ab|-2~---|------------------------------------5-5-5-5-5-5-5-5-| 
Db|-2~---|-2-2-2-2-2-2-2-2...-7-7-7-7-7-7-7-7-7-7-7-7-7-7-7-7-| 

eb|------------------|----------------------------| 
Bb|-------------8----|-------------8------10--12~-| 
Gb|------9--7-9---9~-|------9--7-9---9--9---------| 
Db|-9~-9-------------|-9~-9-----------------------| <-these are played faintly 
Ab|------------------|----------------------------|   in the background. 
Db|------------------|----------------------------| 



>BRIDGE< 

eb|----------------------| 
Bb|----------------------| 
Gb|----------------------| 
Db|---------5h7----------| 
Ab|---5h7h9-------5h7h9\-| <-only played once 
Db|-9-----------9--------| 

eb|---------------------------------| 
Bb|---------------------------------| 
Gb|-----------------4-------4---2---| 
Db|-------5---2h5-----5-------------| 
Ab|---------------------------------| 
Db|-2-2-2---2-----2-----2-2---2---2-| 

eb|-----------------------------------| 
Bb|-----------------------------------| 
Gb|-------7--4h5p4--------------------| 
Db|-5----------------4---5---7---5----| 
Ab|---3-3--3-------3---5---5---5---5--| 
Db|-----------------------------------| 

eb|---------------------------------| 
Bb|---------------------------------| 
Gb|-----------------4-------4---2---| 
Db|-------5---2h5-----5-------------| 
Ab|---------------------------------| 
Db|-2-2-2---2-----2-----2-2---2---2-| 

eb|--------------------------------------| 
Bb|--------------------------------------| 
Gb|-------4------------------------------| 
Db|-5------------4----------5h7----------| 
Ab|---3-3--3-5-7------5h7h9-------5h7h9\-| x2 
Db|-----------------9-----------9--------| 


REPEAT THE INTRO AS THE LAST CHORUS
 
	  

Search Paypal
auto scroll beats size up size down change color hide chords drawings
tab show chords e-chords YouTube Clip e-chords hide all tabs e-chords go to top tab