Butcher Babies

Monsters Ball Tab

Butcher Babies

Difficulty: nolevelnolevel

by gustsilva

tuner correct add songbook print version text version save to e-mail
chordsukulelecavacokeyboardtabbassdrumsharmonicsflute Guitar Pro
close

there isn't a video lesson for this song

request
chords

Monsters Ball

  		Intro 

eb|-----------------|-------------------------------------| 
Bb|-----------------|-------------------------------------| 
Gb|-----------------|-------------------------------------| 
Db|-----------------|-------------------------------------| 
Ab|-----------------|-------------------------------------| 
Db|-0--0-0-0--1b2r0-|-0-0-0-1b2r0-0-0-0-1b2r0-0-0-0-1b2r0-| 
    *  * * *          * * *       * * *       * * *      



Verse 

eb|----------------------------|------------10-12-12b13r12----| 
Bb|----------------------------|-------10-12------------------| 
Gb|----------------------------|-10-12------------------------| 
Db|----------------------------|------------------------------| 
Ab|----------------------------|------------------------------| 
Db|-0-0-0--0-0-0--0-0-0--0-0-0-|------------------------------| 
    * * *  * * *  * * *  * * * 

Pre-Chorus 

eb|-----------------| 
Bb|-----------------| 
Gb|-----------------| 
Db|-----------------| 
Ab|-3-5-3-5-3-5-3-5-| 
Db|-1-3-1-3-1-3-1-5-| 

Chorus 


eb|-----------------------|     --------------------------| 
Bb|-----------------------|     --------------------------| 
Gb|-----------------------|     --------------------------| 
Db|-----------------------|X2   --------------------------| 
Ab|-3-3--3-3-3--3-3-3-3-3-|     ------------7b8-7b8---7b8-| 
Db|-1-1--1-1-1--1-1-1-1-1-|     -0-0--0-0-0-5b6-5b6-0-5b6-| 

Solo 

eb|----------------------------------------| 
Bb|----------------------------------------| 
Gb|----------------------------------------| 
Db|-------7-9b10)r9-10-9~--9/11~--9~-11~-9~| 
Ab|-7-7-9----------------------------------| 
Db|----------------------------------------| 

Outro 

eb|------------|------------|------------|------------| 
Bb|------------|------------|------------|------------| 
Gb|------------|------------|------------|------------| 
Db|------------|------------|------------|------------|X2 
Ab|------------|------------|------------|------------| 
Db|-0-0-0--0-0-|-0-0-0--0-0-|-0-0-0--0-0-|-0-0-0--0-0-| 

eb|------------------------------------|-------| 
Bb|------------------------------------|-------| 
Gb|------------------------------------|-------| 
Db|------------------------------------|-------| 
Ab|------------------------------------|-5/4/3-| 
Db|-0-0-0-2--0-0-0-2--0-0-0-2--0-0-0-2-|-3/2/1-| 

********************************** 
Legend: 
)=Let Ring 
*=Palm mute 
~=vibrato 
^=pinch harmonic 
\=slide 
h=hammer on 
p=pull off 
tr=tremolo 
X=left hand mute 
	  

Search Paypal
auto scroll beats size up size down change color hide chords drawings
tab show chords e-chords YouTube Clip e-chords hide all tabs e-chords go to top tab

share with facebook