Matchbook Romance

home > Matchbook Romance

Monsters Tab

Matchbook Romance

Difficulty: ExpertExpert

by Helena%5F2892

tuner correct add songbook print version text version save to e-mail
chordsukulelecavacokeyboardtabbassdrumsharmonicsflute Guitar Pro
chords

Monsters

  		Tablature Key 
 
Slide Down (/) 
Slide Up (\) 
Bend (b) 
Hammer On (h) 
Pull Off (p) 
Let Note Ring Out (~) 
 
 
 
Intro/Verse (Guitar 1) 
 
 
e|-13----------13----------13----------12-13-14-14/16-| 
B|-------14----------14----------14-------------------| 
G|----15----15----15----15----15----15----------------|  X8 
D|----------------------------------------------------| 
A|----------------------------------------------------| 
D|----------------------------------------------------| 
 
 
Intro/Verse (Guitar 2) 
 
e|------------------------------------| 
B|------------------------------------| 
G|------------------------------------|  X4 
D|------------------------------------| 
A|-1-1/4\1--1-1/6\1--1-1/7\1--1-1/8\1-| 
D|------------------------------------| 
 
 
Pre-Chorus (Guitar 1) 
 
  |-----x4----| 
e|-13----------|-13-------13-------12-------12-------| 
B|-------14----|-------14-------14-------14-------14-| 
G|----15----15-|----14-------14-------15-------15----| 
D|-------------|-------------------------------------| 
A|-------------|-------------------------------------| 
D|-------------|-------------------------------------| 
 
Pre-Chorus (Guitar 2) 
 
e|------------------------------------| 
B|------------------------------------| 
G|------------------------------------|  X2 
D|------------------------------------| 
A|-1-1/4\1--1-1/6\1--1-1/7\1--1-1/8\1-| 
D|------------------------------------| 
 
 
Chorus (Guitars 1 & 2) 
 
e|-------------------------------------------------------------------| 
B|-------------------------------------------------------------------| 
G|-3333333333------------6666666666----------------------------------|  X2 
D|-3333333333-4444444444-6666666666-3333333333-4444444444-1111111111-| 
A|-1111111111-4444444444-4444444444-3333333333-4444444444-1111111111-| 
D|------------4444444444------------3333333333-4444444444-1111111111-| 
 
 
Pre-Verse Guitar 1 
 
  |-----x6----| 
e|-13----------|-13----------12-13-14-14/16-| 
B|-------14----|-------14-------------------| 
G|----15----15-|----15----15----------------| 
D|-------------|----------------------------| 
A|-------------|----------------------------| 
D|-------------|----------------------------| 
 
 
Pre-Verse (Guitar 2) 
 
e|------------------------------------| 
B|------------------------------------| 
G|------------------------------------|  X2 
D|------------------------------------| 
A|-1-1/4\1--1-1/6\1--1-1/7\1--1-1/8\1-| 
D|------------------------------------| 
 
 
Verse (Guitar 1) 
 
e|-13----------13----------13----------12-13-14-14/16-| 
B|-------14----------14----------14-------------------| 
G|----15----15----15----15----15----15----------------|  X4 
D|----------------------------------------------------| 
A|----------------------------------------------------| 
D|----------------------------------------------------| 
 
Verse (Guitar 2) 
 
e|------------------------------------| 
B|------------------------------------| 
G|------------------------------------|  X2 
D|------------------------------------| 
A|-1-1/4\1--1-1/6\1--1-1/7\1--1-1/8\1-| 
D|------------------------------------| 
 
 
Pre-Chorus (Guitar 1) 
 
  |-----x4----| 
e|-13----------|-13-------13-------12-------12-------| 
B|-------14----|-------14-------14-------14-------14-| 
G|----15----15-|----14-------14-------15-------15----| 
D|-------------|-------------------------------------| 
A|-------------|-------------------------------------| 
D|-------------|-------------------------------------| 
 
Pre-Chorus (Guitar 2) 
 
e|------------------------------------| 
B|------------------------------------| 
G|------------------------------------|  X2 
D|------------------------------------| 
A|-1-1/4\1--1-1/6\1--1-1/7\1--1-1/8\1-| 
D|------------------------------------| 
 
 
Chorus (Guitars 1 & 2) 
 
e|-------------------------------------------------------------------| 
B|-------------------------------------------------------------------| 
G|-3333333333------------6666666666----------------------------------|  X2 
D|-3333333333-4444444444-6666666666-3333333333-4444444444-1111111111-| 
A|-1111111111-4444444444-4444444444-3333333333-4444444444-1111111111-| 
D|------------4444444444------------3333333333-4444444444-1111111111-| 
 
 
Bridge Part 1 (Guitars 1 & 2) 
 
  |----x3---| 
e|-----------|----------------| 
B|-----------|----------------| 
G|-3-3-33-33-|----------------| 
D|-3-3-33-33-|-3-1---3--------| 
A|-1-1-11-11-|-----4---4-3----| 
D|-----------|-------------2b-| 
 
 
Bridge Part 2 (Guitar 1) 
  |-----x7----| 
e|-13----------|-13-13-13-| 
B|-------14----|----14-14-| 
G|----15----15-|----15-15-|  X4 
D|-------------|----------| 
A|-------------|----------| 
D|-------------|----------| 
 
Bridge Part 2 (Guitar 2) *This could be wrong because its very hard to hear* 
 
  |--------------x2-----------------| |------------------x2---------------| 
e|-----------------------------------|-------------------------------------| 
B|-----------------------------------|-------------------------------------| 
G|-1515151515151515------------------|-18181818----------19191919----------| 
D|------------------1616161614141414-|----------18181616----------20201919-| 
A|-----------------------------------|-------------------------------------| 
D|-----------------------------------|-------------------------------------| 
 
 
Solo (Guitar 2) 
 
e|------------------------------------------------------| 
B|------------------------------------------------------| 
G|------------------------------------------------------| 
D|-13~--14b15-13-11----11-------11h13-14b15-13-11----11-| 
A|------------------13----11h13-------------------13----| 
D|------------------------------------------------------| 
 
e|------------------------------------------------------| 
B|-------14-14------------------------------------------| 
G|-13b14-------13-11-10-8-------------------------------| 
D|------------------------11-10---------------------6-8-| 
A|------------------------------13-12---------6-8-9-----| 
D|------------------------------------8-10-11-----------| 
 
e|-------------------------6-6\0-------------------------------| 
B|-----------------6-6-9-9-------------------------------------| 
G|---------6-6-8-8---------------------------------------------| 
D|-6-6-8-8-----------------------------------------------------| 
A|-------------------------------13h15h16p15p13-13h15h16p15p13-| 
D|-------------------------------------------------------------| 
 
e|-------------------------------------------------------------| 
B|-------------------------------------------------------------| 
G|-------------------------------------------------------------| 
D|-------------------------------11h13h15p13p11-11h13h15p15p11-| 
A|-15h16h18p16p15-15h16h18p16p15-------------------------------| 
D|-------------------------------------------------------------| 
 
e|-------------------------------------------------------------| 
B|-------------------------------------------------------------| 
G|-------------------------------11h13h15p13p11-11h13h15p13p11-| 
D|-13h15h16p15p13-13h15h16p15p13-------------------------------| 
A|-------------------------------------------------------------| 
D|-------------------------------------------------------------| 
 
e|-------------------------------------------------------------------| 
B|-------------------------------------------------------------------| 
G|-13h15h17p15p13-13h15h17p15p13-10101010-11111111-13131313-14141414-| 
D|-------------------------------------------------------------------| 
A|-------------------------------------------------------------------| 
D|-------------------------------------------------------------------| 
 
e|-------------------------------------------| 
B|-------------------------------------------| 
G|-15p14-15p14-15p14-15p14-15p14-15p14----17-| X4 
D|-------------------------------------15----| 
A|-------------------------------------------| 
D|-------------------------------------------| 
 
Fill For Guitar 2 During Solo (Same as the Chorus) 
 
e|-------------------------------------------------------------------| 
B|-------------------------------------------------------------------| 
G|-3333333333------------6666666666----------------------------------|  X2 
D|-3333333333-4444444444-6666666666-3333333333-4444444444-1111111111-| 
A|-1111111111-4444444444-4444444444-3333333333-4444444444-1111111111-| 
D|------------4444444444------------3333333333-4444444444-1111111111-| 
 
 
 
Chorus (Guitars 1 & 2) 
 
e|-------------------------------------------------------------------| 
B|-------------------------------------------------------------------| 
G|-3333333333------------6666666666----------------------------------|  X2 
D|-3333333333-4444444444-6666666666-3333333333-4444444444-1111111111-| 
A|-1111111111-4444444444-4444444444-3333333333-4444444444-1111111111-| 
D|------------4444444444------------3333333333-4444444444-1111111111-| 
 
Outro (Guitars 1 & 2) 
 
e|---------------------------------------------| 
B|---------------------------------------------| 
G|-3333333333------------6666666666------------| 
D|-3333333333-4444444444-6666666666-3333333333-| 
A|-1111111111-4444444444-4444444444-3333333333-| 
D|------------4444444444------------3333333333-| 
 
 
Outro Riff (Guitar 1) 
 
e|-3-5-6-8-9b-8-------| 
B|--------------11~---| 
G|--------------------| 
D|--------------------| 
A|--------------------| 
D|--------------------| 
 
Outro Riff (Guitar 2) 
 
e|--------------------| 
B|-----------1~-------| 
G|-6~---3~---3~-------| 
D|-4~---1~---3~-------| 
A|-4~---1~---1~-------| 
D|-4~---1~------------| 
 

	  

Search Paypal
auto scroll beats size up size down change color hide chords drawings
tab show chords e-chords YouTube Clip e-chords hide all tabs e-chords go to top tab