Coal Chamber

Rowboat

Coal Chamber

tabs

save to print version add songbook text version e-mail correct tuner
chordsukulelecavacokeyboardtabbassdrumsharmonicaflute Guitar Pro
close

there isn't a video lesson for this song

chords

Rowboat

	  		
 
band : coal chamber 
song : rowboat 
cd : dark days 
 
tunning : a e a d g b 
 
- = palm mute 
~ = let ring 
 
intro 
------------------------------------------------- 
------------------------------------------------- 
------------------------------------------------- 
----0-----0----0---0--0------0-----0----0---0--0- 
-5-----5----5---5----5----6-----6----6----6---6-- 
------------------------------------------------- 
 
verse            chorus 
-------         ----------------------------------- 
-------         ----------------------------------- 
-------         -----------------------------------4x's 
-3~--4- 15x's   -3-3-3-4-4-4-4-4---4-3-1-4-3-1-4-3- 
-3~--4-         -3-3-3-4-4-4-4-4---4-3-1-4-3-1-4-3- 
-3~--4-         -3-3-3-4-4-4-4-4---4-3-1-4-3-1-4-3- 
 
then verse 10x's 
then chorus 8x's 
 
then play verse like         then (regular verse) 
--------                      ------- 
--------                      ------- 
--------2x's                  -------1x's 
-3~--4~-                      -3~--4- 
-3~--4~-                      -3~--4- 
-3~--4~-                      -3~--4- 
 
then (3rd time, slowly release p.m. and dont play the 18) 
---------------------------------------- 
---------------------------------------- 
-10-10-10-11-11-13-13-15-15-17-17-17-18-3x's 
---------------------------------------- 
---------------------------------------- 
---------------------------------------- 
 -  -  -  -  -  -  -  -  -  -  -  -  -  
 
then  itrelude thing                                  guitar 2 (comes in 5th time) 
-------------------------------        ------ 
-------------------------------        ---5-- 
-------------------------------8x's    ------ i think about 64x's 
-3-3-3-4-4/6-6/8-8/10-10-11-10-        ------ 
-3-3-3-4-4/6-6/8-8/10-10-11-10-        ------ 
-3-3-3-4-4/6-6/8-8/10-10-11-10-        ------ 
 
then chorus 6x's 
then intrelude 2x's 
 
then 
--------- 
--------- 
--------- 
-3~--4~~- 
-3~--4~~- 
-3~--4~~- 
 
this is correct(please rate) 
theroofingfidler 
 

		  

See also:

tabs Deftones - Change tabs Velvet Revolver - Fall to pieces tabs Darkness - I Believe in a Thing Called Love tabs Lifehouse - Blind Acoustic tabs Queens Of The Stone Age - Go with the Flow tabs Black Crowes - Remedy
e-chords

Other versions:

tabs Coal Chamber - Rowboat tabs Johnny Cash - Rowboat tabs Coal Chamber - Rowboat (ver. 2) tabs Coal Chamber - Rowboat (ver. 3)
auto scroll beats size up size down change color hide chords drawings
tab show chords e-chords YouTube Clip e-chords hide all tabs e-chords go to top tab

share