Coal Chamber

Suffer In Silence

Coal Chamber

tabs

by  EDUCASTILHO

save to print version add songbook text version e-mail correct tuner
chordsukulelecavacokeyboardtabbassdrumsharmonicaflute Guitar Pro
close

there isn't a video lesson for this song

chords

Suffer In Silence

	  		

Guitars 1 and 2 (w/ dist) - second time with wah-wah 
                                                                      ---------------------| 
    ?  V  ?   ?   ?  V  ?   ?   ?  V  ?   ?  V  ?   ?   ?  V  ?   ?   ?  V  ?              | 
 B|-------------------------------------|--------------------------------------|           |  
F#|-------------------------------------|--------------------------------------|           | 
 D|-------------------------------------|--------------------------------------|           | 
 A|-------1---1---------1---1---------2-|-------1---1---------1---1---------4--|           | 
 E|-0--0--1---1---0--0--1---1---0--0--2-|-0--0--1---1---0--0--1---1---0--0--4--|           | 
 A|-0--0--1---1---0--0--1---1---0--0--2-|-0--0--1---1---0--0--1---1---0--0--4--|           | 
    *  *          *  *          *  *      *  *          *  *          *  *                 | 
                                                                                           | 
    ?  V  ?   ?   ?  V  ?   ?   ?  V  ?   ?  V  ?   ?   ?  V  ?   ?   ?  V  ?              | 
 B|-------------------------------------|--------------------------------------|           | 
F#|-------------------------------------|--------------------------------------|           | 
 D|-------------------------------------|--------------------------------------|           | 
 A|-------1---1---------1---1---------6-|-------2---2---------4---4---------2--|           | 
 E|-0--0--1---1---0--0--1---1---0--0--6-|-0--0--2---2---0--0--4---4---0--0--2--|           | 
 A|-0--0--1---1---0--0--1---1---0--0--6-|-0--0--2---2---0--0--4---4---0--0--2--|           | 
    *  *          *  *          *  *      *  *          *  *          *  *                 | 
                                                                                           | x2 
    ?  V  ?   ?   ?  V  ?   ?   ?  V  ?   ?  V  ?   ?   ?  V  ?   ?   ?  V  ?              | 
 B|-------------------------------------|--------------------------------------|           | 
F#|-------------------------------------|--------------------------------------|           | 
 D|-------------------------------------|--------------------------------------|           | 
 A|-------1---1---------1---1---------2-|-------1---1---------1---1---------4--|           | 
 E|-0--0--1---1---0--0--1---1---0--0--2-|-0--0--1---1---0--0--1---1---0--0--4--|           | 
 A|-0--0--1---1---0--0--1---1---0--0--2-|-0--0--1---1---0--0--1---1---0--0--4--|           | 
    *  *          *  *          *  *      *  *          *  *          *  *                 | 
                                                                                           | 
    ?  V  ?   ?   ?  V  ?   ?   ?  V  ?   ?  V  ?   ?   ?   ?  V  ?  V  ?  V  ?  V         | 
 B|-------------------------------------|-------------------------------------------|      | 
F#|-------------------------------------|-------------------------------------------|      | 
 D|-------------------------------------|-------------------------------------------|      | 
 A|-------1---1---------1---1---------6-|-------2---2-------------------------------|      | 
 E|-0--0--1---1---0--0--1---1---0--0--6-|-0--0--2---2---0---------------------------|      | 
 A|-0--0--1---1---0--0--1---1---0--0--6-|-0--0--2---2---0---4--4--4--4--2--2--2--2--|      | 
    *  *          *  *          *  *      *  *              *  *  *  *  *  *  *  *         | 
                                                                      ---------------------| 

---------------------------------------------------------------------------------------------------------- 
|                                         VERSE (00:36-00:59)                                            | 
---------------------------------------------------------------------------------------------------------- 

Guitars 1 and 2 (w/ dist) 

    ?  V  ?  V  ? 
 B|---------------------------| 
F#|---------------------------| 
 D|---------------------------| x4 
 A|---------------------------| 
 E|-------------6-------------| 
 A|-7--7--7--7--6-------------| 
    *  *  *  *  * 
                                                                             ----------------------| 
    ?  V  ?  V  ?    ?  V  ?   ?  V  ?     ?  V  ?  V  ?    ?  V  ?   ?  V  ?                      | 
 B|--------------------------------------|--------------------------------------|                  | 
F#|--------------------------------------|--------------------------------------|                  | 
 D|--------------------------------------|--------------------------------------|                  | 
 A|-------------6----------6---------6---|-------------6------------------------|                  | 
 E|-------------6----------6---------6---|-------------6----------9---------9---|                  | 
 A|-7--7--7--7--6----6--6--6---6--6--6---|-7--7--7--7--6----6--6--6---6--6--6---|                  | 
    *  *  *  *       *  *      *  *        *  *  *  *       *  *      *  *                         | 
                                                                                                   | x2 
    ?  V  ?  V  ?    ?  V  ?   ?  V  ?     ?  V  ?  V  ?  V  ?  V  ?  V  ?  V  ?  V  ?  V          | 
 B|--------------------------------------|-------------------------------------------------|       | 
F#|--------------------------------------|-------------------------------------------------|       | 
 D|--------------------------------------|-------------------------------------------------|       | 
 A|-------------6----------7---------7---|-------------------------------------------------|       | 
 E|-------------6----------7---------7---|-------------------------------------------------|       | 
 A|-7--7--7--7--6----6--6--6---6--6--6---|-9--9--9--9--7--7--7--7--9--9--9--9--6--6--6--6--|       | 
    *  *  *  *       *  *      *  *        *  *  *  *  *  *  *  *  *  *  *  *  *  *  *  *          | 
                                                                             ----------------------| 
            
---------------------------------------------------------------------------------------------------------- 
|                                         Chorus (00:59-01:14)                                           | 
---------------------------------------------------------------------------------------------------------- 

I. Guitars 1 and 2 (w/ dist) 

    ?  V  ?   ?   ?  V  ?   ?   ?  V  ?   ?  V  ?   ?   ?  V  ?   ?   ?  V  ? 
 B|-------------------------------------|--------------------------------------| 
F#|-------------------------------------|--------------------------------------| 
 D|-------------------------------------|--------------------------------------| 
 A|-------1---1---------1---1---------2-|-------1---1---------1---1---------4--| 
 E|-0--0--1---1---0--0--1---1---0--0--2-|-0--0--1---1---0--0--1---1---0--0--4--| 
 A|-0--0--1---1---0--0--1---1---0--0--2-|-0--0--1---1---0--0--1---1---0--0--4--| 
    *  *          *  *          *  *      *  *          *  *          *  *    
         
    ?  V  ?   ?   ?  V  ?   ?   ?  V  ?   ?  V  ?   ?   ?  V  ?   ?   ?  V  ? 
 B|-------------------------------------|--------------------------------------| 
F#|-------------------------------------|--------------------------------------| 
 D|-------------------------------------|--------------------------------------| 
 A|-------1---1---------1---1---------6-|-------2---2---------4---4---------2--| 
 E|-0--0--1---1---0--0--1---1---0--0--6-|-0--0--2---2---0--0--4---4---0--0--2--| 
 A|-0--0--1---1---0--0--1---1---0--0--6-|-0--0--2---2---0--0--4---4---0--0--2--| 
    *  *          *  *          *  *      *  *          *  *          *  *      
  
II. Guitars 1 and 2 (w/ dist and wah-wah) 

    ?  V  ?   ?   ?  V  ?   ?   ?  V  ?   ?  V  ?   ?   ?  V  ?   ?   ?  V  ? 
 B|-------------------------------------|--------------------------------------| 
F#|-------------------------------------|--------------------------------------| 
 D|-------------------------------------|--------------------------------------| 
 A|-------1---1---------1---1---------2-|-------1---1---------1---1---------4--| 
 E|-0--0--1---1---0--0--1---1---0--0--2-|-0--0--1---1---0--0--1---1---0--0--4--| 
 A|-0--0--1---1---0--0--1---1---0--0--2-|-0--0--1---1---0--0--1---1---0--0--4--| 
    *  *          *  *          *  *      *  *          *  *          *  * 
         
    ?  V  ?   ?   ?  V  ?   ?   ?  V  ?   ?  V  ?   ?   ?   ?  V  ?  V  ?  V  ?  V 
 B|-------------------------------------|-------------------------------------------| 
F#|-------------------------------------|-------------------------------------------| 
 D|-------------------------------------|-------------------------------------------| 
 A|-------1---1---------1---1---------6-|-------2---2-------------------------------| 
 E|-0--0--1---1---0--0--1---1---0--0--6-|-0--0--2---2---0---------------------------| 
 A|-0--0--1---1---0--0--1---1---0--0--6-|-0--0--2---2---0---4--4--4--4--2--2--2--2--| 
    *  *          *  *          *  *      *  *              *  *  *  *  *  *  *  * 
         
---------------------------------------------------------------------------------------------------------- 
|                                         verse 2 (01:14-01:37)                                          | 
---------------------------------------------------------------------------------------------------------- 
                                             same as VERSE 
---------------------------------------------------------------------------------------------------------- 
|                                         Chorus 2 (01:37-02:07)                                         | 
---------------------------------------------------------------------------------------------------------- 

I. Guitars 1 and 2 (w/ dist) 

    ?  V  ?   ?   ?  V  ?   ?   ?  V  ?   ?  V  ?   ?   ?  V  ?   ?   ?  V  ? 
 B|-------------------------------------|--------------------------------------| 
F#|-------------------------------------|--------------------------------------| 
 D|-------------------------------------|--------------------------------------| 
 A|-------1---1---------1---1---------2-|-------1---1---------1---1---------4--| 
 E|-0--0--1---1---0--0--1---1---0--0--2-|-0--0--1---1---0--0--1---1---0--0--4--|\ 
 A|-0--0--1---1---0--0--1---1---0--0--2-|-0--0--1---1---0--0--1---1---0--0--4--| \ 
    *  *          *  *          *  *      *  *          *  *          *  *        \  
                                                                                   x2 
    ?  V  ?   ?   ?  V  ?   ?   ?  V  ?   ?  V  ?   ?   ?  V  ?   ?   ?  V  ?     / 
 B|-------------------------------------|--------------------------------------| / 
F#|-------------------------------------|--------------------------------------|/ 
 D|-------------------------------------|--------------------------------------| 
 A|-------1---1---------1---1---------6-|-------2---2---------4---4---------2--| 
 E|-0--0--1---1---0--0--1---1---0--0--6-|-0--0--2---2---0--0--4---4---0--0--2--| 
 A|-0--0--1---1---0--0--1---1---0--0--6-|-0--0--2---2---0--0--4---4---0--0--2--| 
    *  *          *  *          *  *      *  *          *  *          *  *       
         
II. Guitars 1 and 2 (w/ dist and wah-wah) 

    ?  V  ?   ?   ?  V  ?   ?   ?  V  ?   ?  V  ?   ?   ?  V  ?   ?   ?  V  ? 
 B|-------------------------------------|--------------------------------------| 
F#|-------------------------------------|--------------------------------------| 
 D|-------------------------------------|--------------------------------------| 
 A|-------1---1---------1---1---------2-|-------1---1---------1---1---------4--| 
 E|-0--0--1---1---0--0--1---1---0--0--2-|-0--0--1---1---0--0--1---1---0--0--4--| 
 A|-0--0--1---1---0--0--1---1---0--0--2-|-0--0--1---1---0--0--1---1---0--0--4--| 
    *  *          *  *          *  *      *  *          *  *          *  *    
         
    ?  V  ?   ?   ?  V  ?   ?   ?  V  ?   ?  V  ?   ?   ?  V  ?   ?   ?  V  ? 
 B|-------------------------------------|--------------------------------------| 
F#|-------------------------------------|--------------------------------------| 
 D|-------------------------------------|--------------------------------------| 
 A|-------1---1---------1---1---------6-|-------2---2---------4---4---------2--| 
 E|-0--0--1---1---0--0--1---1---0--0--6-|-0--0--2---2---0--0--4---4---0--0--2--| 
 A|-0--0--1---1---0--0--1---1---0--0--6-|-0--0--2---2---0--0--4---4---0--0--2--| 
    *  *          *  *          *  *      *  *          *  *          *  *       
         
    ?  V  ?   ?   ?  V  ?   ?   ?  V  ?   ?  V  ?   ?   ?  V  ?   ?   ?  V  ? 
 B|-------------------------------------|--------------------------------------| 
F#|-------------------------------------|--------------------------------------| 
 D|-------------------------------------|--------------------------------------| 
 A|-------1---1---------1---1---------2-|-------1---1---------1---1---------4--| 
 E|-0--0--1---1---0--0--1---1---0--0--2-|-0--0--1---1---0--0--1---1---0--0--4--| 
 A|-0--0--1---1---0--0--1---1---0--0--2-|-0--0--1---1---0--0--1---1---0--0--4--| 
    *  *          *  *          *  *      *  *          *  *          *  * 
         
    ?  V  ?   ?   ?  V  ?   ?   ?  V  ?   ?  V  ?   ?   ?   ?  V  ?  V  ?  V  ?  V 
 B|-------------------------------------|-------------------------------------------| 
F#|-------------------------------------|-------------------------------------------| 
 D|-------------------------------------|-------------------------------------------| 
 A|-------1---1---------1---1---------6-|-------2---2-------------------------------| 
 E|-0--0--1---1---0--0--1---1---0--0--6-|-0--0--2---2---0---------------------------| 
 A|-0--0--1---1---0--0--1---1---0--0--6-|-0--0--2---2---0---4--4--4--4--2--2--2--2--| 
    *  *          *  *          *  *      *  *              *  *  *  *  *  *  *  * 
                                     
---------------------------------------------------------------------------------------------------------- 
|                                         BRIDGE (02:07-03:19)                                           | 
---------------------------------------------------------------------------------------------------------- 

I. Guitars 1 and 2 (w/ dist) 

    ?  V  ?   ?   ?  V  ?   ?   ?  V  ?              ?     ?    ?    
 B|---------------------------------------|        |-----------------| 
F#|---------------------------------------|        |-----------------| 
 D|---------------------------------------| x3     |-----------------| 
 A|---------------------------------------|        |-----------------| 
 E|---------------------------------------|        |-3-----2----2----| 
 A|-7--7--7---7---7--7--7---7---7--7--7---|        |-3-----2----2----| 
    *  *  *   *   *  *  *   *   *  *  *          
         
    ?  V  ?   ?   ?  V  ?   ?   ?  V  ?              ?    ?    ?    ?      ? 
 B|---------------------------------------|        |---------------------|--------| 
F#|---------------------------------------|        |---------------------|--------| 
 D|---------------------------------------| x3     |---------------------|-7------| 
 A|---------------------------------------|        |---------------------|-x------| 
 E|---------------------------------------|        |-3----3----2----2----|-6------| 
 A|-7--7--7---7---7--7--7---7---7--7--7---|        |-3----3----2----2----|--------| 
    *  *  *   *   *  *  *   *   *  *  *   
      
    ?  V   ? 
 B|-----------------------| 
F#|-----------------------| 
 D|-----------------------| x4 
 A|-----------------------| 
 E|-0--0---0--------------| 
 A|-0--0---0--------------| 
    *  *   * 

    ?     ?     ?     ?     ?     ?     ?     ?      ?     ?     ?     ?     ?     ?     ?     ?    
 B|-1-p0--------1-p0--------1-p0--------1-p0-------|-1-p0--------1-p0--------------------------------| 
F#|-------1-p0--------1-p0--------1-p0--------1-p0-|-------1-p0--------1-p0--3-p0--1-p0--3-p0--1-p0--| 
 D|------------------------------------------------|-------------------------------------------------| x4 
 A|------------------------------------------------|-------------------------------------------------| 
 E|------------------------------------------------|-------------------------------------------------| 
 A|------------------------------------------------|-------------------------------------------------| 
  
                                                      -------------------| 
    ?  V  ?    ?  V  ?    ?  V  ?     ?  V  ?    ?  V  ?    ?  V         | 
 B|--------------------------------|-----------------------------|       | 
F#|--------------------------------|-----------------------------|       | 
 D|--------------------------------|-----------------------------|       | 
 A|--------------------------------|-----------------------------|       | 
 E|--------------------------------|-----------------------------|       | 
 A|-0--0--0----0--0--0----0--0--0--|--0--0--0----0--0--0----0--0-|       | 
    *  *  *    *  *  *    *  *  *     *  *  *    *  *  *    *  *         | 
                                                                         | x3 
    ?    ?  V  ?    ?  V  ?     ?    ?    ?   ?    ?    ?                | 
 B|---------------------------|----------------------------|             | 
F#|---------------------------|----------------------------|             | 
 D|---------------------------|----------------------------|             | 
 A|---------------------------|----------------------------|             | 
 E|---------------------------|----------------------------|             | 
 A|-0----0--0--0----0--0--0---|-13---0----12--0----13---0--|             | 
    *    *  *  *    *  *  *                           -------------------| 
         
    ?  V  ?    ?  V  ?    ?  V  ?     ?  V  ?    ?  V  ?    ?  V  
 B|--------------------------------|-----------------------------| 
F#|--------------------------------|-----------------------------| 
 D|--------------------------------|-----------------------------| 
 A|--------------------------------|-----------------------------| 
 E|--------------------------------|-----------------------------| 
 A|-0--0--0----0--0--0----0--0--0--|--0--0--0----0--0--0----0--0-| 
    *  *  *    *  *  *    *  *  *     *  *  *    *  *  *    *  * 
     
    ?   ?   ?   ?   ?   ?   ?   ?    ?  V  ?    ?  V  ?    ?   ?    ?   ?   ? 
 B|--------------------------------|------------------------------|-----------------------| 
F#|--------------------------------|------------------------------|-----------------------| 
 D|--------------------------------|------------------------------|-----------------------| 
 A|--------------------------------|-------0----------1----12--12-|-12--12--12------------| 
 E|--------------------------------|-------0----------1----12--12-|-12--12--12------------| 
 A|-0---0---0---0---0---0---0---0--|-0--0--0----0--0--1----12--12-|-12--12--12------------| 
    *   *   *   *   *   *   *   *    *  *       *  *      
  
---------------------------------------------------------------------------------------------------------- 
|                                        Chorus 3 (03:19-03:49)                                          | 
---------------------------------------------------------------------------------------------------------- 
                                            same as INTRO 
---------------------------------------------------------------------------------------------------------- 
|                                         OUTRO (03:49-03:59)                                            | 
---------------------------------------------------------------------------------------------------------- 

Guitars 1 and 2 (w/ dist) 

    ?  V  ?  V  ? 
 B|---------------------------| 
F#|---------------------------| 
 D|---------------------------| 
 A|-------------6-------------| 
 E|-------------6-------------| 
 A|-7--7--7--7--6-------------| 
    *  *  *  * 
		  

See also:

tabs Avantasia - Sign Of The Cross tabs Bloodhound Gang - Fire Water Burn (The Roof is on Fire) tabs Deftones - Change tabs Crazy Town - Buterfly tabs Stone Sour - Bother tabs Interpol - Obstacle (ver. 1)
e-chords

Other versions:

tabs Coal Chamber - Suffer In Silence
auto scroll beats size up size down change color hide chords drawings
tab show chords e-chords YouTube Clip e-chords hide all tabs e-chords go to top tab

share