Coal Chamber

Locco

Coal Chamber

tabs

save to print version add songbook text version e-mail correct tuner
chordsukulelecavacokeyboardtabbassdrumsharmonicaflute Guitar Pro
close

there isn't a video lesson for this song

chords

Locco

	  		 Coal Chamber	 
Loco 
Coal Chamber 
1997 (Correct Tuning This Time)	 
Most People Play The Song In Drop D, I Think It Sounds Better In Drop B 
 
B# 
Eb 
Ab 
Db 
Gb 
Bb 
Key: 
*= Palm Mute 
/= Slide Up 
\= Slide Down 
~= Drag Out 
Intro (Flanger Pedal, Or Clean Distortion, I Prefer Flanger)  
 
|----0---0---0---0-0---0-0-| 
|--4---4---4---4----4------| 
|--------------------------| 
|--------------------------| 
|--------------------------| 
|--------------------------| 
 
|----0---0---0---0-0---0-0-| 
|--3---3---3---3----3------| 
|--------------------------| 
|--------------------------| 
|--------------------------| 
|--------------------------| 
 
Distorted  
|-----| 
|-----| 
|-----| 
|--0--| 
|--0--| 
|--0--|  
   ~                 
 
Verse(When Dez says Pull, start) 
|------------------------------------| 
|------------------------------------| 
|------------------------------------| 
|--0-2-0-2-0-2-3-2---0-2-0-2-0-2-8-7-| 
|--0-2-0-2-0-2-3-2---0-2-0-2-0-2-8-7-| 
|--0-2-0-2-0-2-3-2---0-2-0-2-0-2-8-7-| 
   * * * * * *       * * * * * *  
Distorted w/ Flanger 
|------------------| 
|------------------| 
|--2-2-2--3-3-3----| 
|--2-2-2--3-3-3----| 
|--2-2-2--3-3-3----| 
|--2-2-2--3-3-3----| 
Flanger Off, Distortion Still On 
|---------------------| 
|---------------------| 
|---------------------| 
|---------------------| 
|---------------------| 
|-0-2-0-2-0-2-0-2-3-2-| 
 
|---------------------| 
|---------------------| 
|---------------------| 
|---------------------| 
|---------------------| 
|-0-2-0-2-0-2-0-2-8-7-| 
 
 
Distorted w/ Flanger 
|------------------| 
|------------------| 
|--2-2-2--3-3-3----| 
|--2-2-2--3-3-3----| 
|--2-2-2--3-3-3----| 
|--2-2-2--3-3-3----| 
 
 
Flanger Off, Distortion Still On 
|---------------------| 
|---------------------| 
|---------------------| 
|---------------------| 
|---------------------| 
|-0-2-0-2-0-2-0-2-3-2-| 
 
|---------------------| 
|---------------------| 
|---------------------| 
|---------------------| 
|---------------------| 
|-0-2-0-2-0-2-0-2-8-7-| 
 
Chorus 
 
|--------------------------| 
|--------------------------| 
|--------------------------| 
|-3-3--3--3-3--3-3--3--3-3-| 
|-3-3--3--3-3--3-3--3--3-3-| 
|-3-3--3--3-3--3-3--3--3-3-| 
 
|--------------------------| 
|--------------------------| 
|--------------------------| 
|-2-2--2--2-2--2-2--2--2-2-| 
|-2-2?-2--2-2--2-2--2--2-2-| 
|-2-2?-2--2-2--2-2--2--2-2-| 
 
 
|----------------------------------------------------| 
|----------------------------------------------------| 
|----------------------------------------------------| 
|-1-1--1--1-1--1-1--1--1-1--1-1--1--1-1--1-1--1--1-1-| 
|-1-1--1--1-1--1-1--1--1-1--1-1--1--1-1--1-1--1--1-1-| 
|-1-1--1--1-1--1-1--1--1-1--1-1--1--1-1--1-1--1--1-1-| 
 
|-----| 
|-----| 
|-----| 
|--0--| 
|--0--| 
|--0--|  
   ~     
 
Interlude 
|-----------------| 
|-----------------| 
|-----------------| 
|--1-2-1-0-2-1-2--| 
|--1-2-1-0-2-1-2--| 
|--1-2-1-0-2-1-2--| 
 
Bridge 
|----------| 
|----------| 
|---7/--8--| 
|----------| 
|---5/--6--| 
|----------| 
 
|------------| 
|------------| 
|---10/--11--| 
|------------| 
|---8/--9----| 
|------------| 
 
That?s The Song; For Any Suggestions mail me at [email protected] 
 

		  

See also:

tabs Deftones - Change tabs Velvet Revolver - Fall to pieces tabs Darkness - I Believe in a Thing Called Love tabs Lifehouse - Blind Acoustic tabs Queens Of The Stone Age - Go with the Flow tabs Black Crowes - Remedy
e-chords

Other versions:

tabs Coal Chamber - Locco
auto scroll beats size up size down change color hide chords drawings
tab show chords e-chords YouTube Clip e-chords hide all tabs e-chords go to top tab

share